» » »

Jam Chords (ver.1)

Artists:  A B C D E F G H I J K L M N O P Q R S T U V W X Y Z # 

Jam Chords (ver.1)

Yui
Rating:
5/5 (1 vote)

Hard to play? Try these video lessons and learn fast.
                YUI - JAM


middle solo
/12-12-12-12---15--15\10--8--10--12--12/16-17-19-17---|
------------------------------------------------------|
------------------------------------------------------|
------------------------------------------------------|
------------------------------------------------------|
------------------------------------------------------|

---------------------12--15-15-14---/17--15--17--17b19--------|
----------12--13--15------------------------------------------|
/12-12-14-----------------------------------------------------|
--------------------------------------------------------------|
--------------------------------------------------------------|
--------------------------------------------------------------|

Intro:
Em G Am7 D x2

Verse:
Em G Am7 D x2
B C x2
B7

Chorus:
C G D Em
C G D Am7

Em C

REPEAT Verse
REPEAT Chorus

Solo:
G D B7/Eb Em
C G Am7 B7

C G D Em
C G Am7

REPEAT Chorus
REPEAT Intro

Em (END)
            
Hard to play? Try these video lessons and learn fast. | Correct




comments powered by Disqus
↑ Back to top | Tablatures and chords are parodies/interpretations of the original songs. You may use it for private study, scholarship, research or language learning purposes only