>
 >
 >
Rolling Star

Rolling Star Guitar Tabs

Yui - Rolling Star chords, tabs, tablatures, lyrics

Guitar lessons | Add/correct | Request | Top 50 tabs Artists:  A B C D E F G H I J K L M N O P Q R S T U V W X Y Z 0-9

Rolling Star Guitar Tabs – Yui

CD, Sheet music, Poster

Do you like Rolling Star? Share with your friends now
ChordsTabsTabs v2Tabs v3Tabs v4Tabs v5Tabs v6Ukulele

P = Palm Muted
~ = Let ring
S = Scratch
^ = Bend
x = treat as the note before
() = pinch harmonic

[Intro]-Picking [play 2x]
Guitar 1
e|------0-0---------0-0----------0-0--------5-5--------|-----5-x-x-5-x-x-5--|
B|----3---3-------3---3--------2---2------3---3--------|-----3-x-x-3-x-x-3--|
G|--4-----------2------------2----------0--------------|-----0-x-x-0-x-x-0--|
D|-----------------------------------------------------|--------------------|
A|-----------------------------------------------------|--------------------|
E|-----------------------------------------------------|--------------------|
                                                               s s   s s 
Guitar 2
e|-----------------------------------------------------|--------------------|
B|-----------------------------------------------------|--------------------|
G|--4-4-4-4-----7-7-7-7--------------------------------|-----14x-x-14x-x-14-|
D|--4-4-4-4-----7-7-7-7------7-7-7-7-----5-5-5-5-------|-----12x-x-12x-x-12-|
A|--2-2-2-2-----5-5-5-5------7-7-7-7-----5-5-5-5-------|-----0-x-x-0-x-x-0--|
E|---------------------------5-5-5-5-----3-3-3-3-------|--------------------|
      P P P       P P P        P P P       P P P               s s   s s

End of intro is a scratch 

[after the intro] 
Guitar 1 [let ring for another bar after]
e|---------------------------------------------------------2~~~~~~~~~~~-----|
B|-------------------------------------------------------------3~~~~~~~-----|
G|------------------------------------------------------2~~~~~~~~~~~~~~-----|
D|--------------------------------------------------------------------------|
A|--------------------------------------------------------------------------|
E|--------------------------------------------------------------------------|

Guitar 2 [x2]
e|--------------------------------------------------------------------------|
B|--------------------------------------------------------------------------|
G|--7-x-x-x-x-x-x---------------------7-x-x-x-x-x-x-x-----------------------|
D|--7-x-x-x-x-x-x---5-x-x-x-x-x-x-x---7-x-x-x-x-x-x-x---5-x-x-x-x-x-x-x-----|
A|--5-x-x-x-x-x-x---5-x-x-x-x-x-x-x---5-x-x-x-x-x-x-x---5-x-x-x-x-x-x-x-----|
E|------------------3-x-x-x-x-x-x-x---------------------3-x-x-x-x-x-x-x-----|
      P P P P P P     P P P P P P P     P P P P P P P     P P P P P P P

[next part]
Guitar 1
e|--------------------------------------------------------------------------|
B|--------------------------------------------------------------------------|
G|--------------------------------------------------------------------------|
D|--------------------------------------------------------------------------|
A|--------------------------------------------------------------------------|
E|--------------------------------------------------------------------------|

Guitar 2 [x2]
e|-----------------12-12--12-12----------------------12-12---12-12----------|
B|-----------------12-12--12-12----------------------12-12---12-12----------|
G|-----------------12-12--12-12----------------------12-12---12-12----------|
D|--4---4---4---5--12-12--12-12-------4---4---4---5--12-12---12-12----------|
A|--4---4---4---5--12-12--12-12-------4---4---4---5--12-12---12-12----------|
E|--2---2---2---3--12-12--12-12-------2---2---2---3--12-12---12-12----------|
                   S  S   S  S                       S  S    S  S
[the part after that]
Guitar 1 [repeat x3]
e|--10--9----------10--9------------10--9-----------------------------------|
B|---------10-------------10------------------------------------------------|
G|--------------------------------------------------------------------------|
D|--------------------------------------------------------------------------|
A|--------------------------------------------------------------------------|
E|--------------------------------------------------------------------------|

Guitar 2 [repeat x2]
e|--------------------------------------------------------------------------|
B|--------------------------------------------------------------------------|
G|--4-4-4-4-4-4-4--7-7-7-7-7-7-7-7------------------------------------------|
D|--4-4-4-4-4-4-4--7-7-7-7-7-7-7-7--7-7-7-7-7-7-7-7--5-5-5-5-5-5-5-5--------|
A|--2-2-2-2-2-2-2--5-5-5-5-5-5-5-5--7-7-7-7-7-7-7-7--5-5-5-5-5-5-5-5--------|
E|----------------------------------5-5-5-5-5-5-5-5--3-3-3-3-3-3-3-3--------|


[the part after after that ]
Guitar 1 with Wah
e|--------------------------------------------------------------------------|
B|--------------------------------------------------------------------------|
G|--------------------------------------------------------------------------|
D|--4-4-5---7----9----12----------------------------------------------------|
A|--------------------------------------------------------------------------|
E|--------------------------------------------------------------------------|

Guitar 2 
e|------------7----------------5-------------------12---------------10------|
B|------------10^12------------9^11----------------15^17------------13^15---|
G|----7------------------7-------------------6------------------7-----------|
D|--9------------------7-------------------7------------------5-------------|
A|--------------------------------------------------------------------------|
E|--------------------------------------------------------------------------|
    p p                p p                 p p                p p

*whats palmed is the intro notes

e|--------------------------------------------------------------------------|
B|--------------------------------------------------------------------------|
G|--4-4-4-4-4-4-4--7-7-7-7-7-7-7-7------------------------------------------|
D|--4-4-4-4-4-4-4--7-7-7-7-7-7-7-7--7-7-7-7-7-7-7-7--5-5-5-5-5-5-5-5--------|
A|--2-2-2-2-2-2-2--5-5-5-5-5-5-5-5--7-7-7-7-7-7-7-7--5-5-5-5-5-5-5-5--------|
E|----------------------------------5-5-5-5-5-5-5-5--3-3-3-3-3-3-3-3--------|


[going into solo]
Guitar 1 
e|------------------------/10-10-10-10-7-7-7-7-------------------------8-7--|
B|------------------------/10-10-10-10-7-7-7-7-7-7-7-7~~~~-------------8-7--|
G|---------------------------------------------7-7-7-------(7)~~~~----7-----|
D|-------------------------------------------------------------------9------|
A|--------------------------------------------------------------------------|
E|--------------------------------------------------------------------------|

in this case the ~ is viberato

Guitar 2 [repeat x2]
e|--------------------------------------------------------------------------|
B|--------------------------------------------------------------------------|
G|--------------------------------------------------------------------------|
D|--4---4-4-4---4-5-5--5-5-5------------------------------------------------|
A|--4---4-4-4---4-5-5--5-5-5------------------------------------------------|
E|--2---2-2-2---2-3-3--3-3-3------------------------------------------------|

[solo]

Some spam 


[After the solo]
Guitar 1 on clean  [x4]
e|--------------------------------------------------------------------------|
B|--------------------------------------------------------------------------|
G|--4-4-4-4---7-7-7-7-------------------------------------------------------|
D|--4-4-4-4---7-7-7-7--7-7-7-7---5-5-5-5------------------------------------|
A|--2-2-2-2---5-5-5-5--7-7-7-7---5-5-5-5------------------------------------|
E|---------------------5-5-5-5---3-3-3-3------------------------------------|

Guitar 2 [x3]
e|--------------------------------------------------------------------------|
B|----8-7-8----8-7-8----8-7-8-10-8-7-8-77-----------------------------------|
G|--9--------7--------7-----------------------------------------------------|
D|--------------------------------------------------------------------------|
A|--------------------------------------------------------------------------|
E|--------------------------------------------------------------------------|


e|--------------------------------------------------2-2-x-2-----------------|
B|----8-8------8-7-8----8-7-8-10-8-7-8-77-----------2-2-x-2-----------------|
G|--7--------7--------7-----------------------------2-2-x-2-----------------|
D|--------------------------------------------------------------------------|
A|--------------------------------------------------------------------------|
E|--------------------------------------------------------------------------|




SEQUENCE:
[Intro]
[After the intro]
[next part]
[the part after that]
[Intro]
[After the intro]
[next part]
[the part after that]
[the part after after that]
[going into solo]
[solo] * NOT TAbbed
[after the solo]
[the part after that]
[that part after after that]
[Intro]





Comments


Popular Yui tabs & chords
Blue Wind Chords
Cooking Chords
Feel My Soul Chords
Find Me Chords
Get Back Home Chords
Good-Bye Days 1 Chords
Green Alive 1 Chords
Namida Iro Chords
I'll Be Tabs
Tomorrows Way Intro 1 Tabs


Song lyrics



↑ Back to top | Tablatures and chords are parodies/interpretations of the original songs. You may use it for private study, scholarship, research or language learning purposes only
© 2014 AZChords.com Contact us | Privacy policy | DMCA | Add/correct tabs | Request tabs | Top 50 tabs