>
 >
 >
Again

Again Guitar Tabs

Yui - Again chords, tabs, tablatures, lyrics

Guitar lessons | Add/correct | Request | Top 50 tabs Artists:  A B C D E F G H I J K L M N O P Q R S T U V W X Y Z 0-9

Again Guitar Tabs – Yui

CD, Sheet music, Poster

Do you like Again? Share with your friends now
ChordsTabsTabs v2Tabs v3Ukulele
===========
YUI - again
===========

I'm sorry i didn't tab the lead guitar during the verses (the little
harmonics, single note pickings, etc.), but it's pretty easy to figure
out by ear and i didn't want to extend the tab too much.
or send me a private message.
Comments and ratings are very much appreciated!

UPDATE 2011.Jan.13
By request, i tabbed the lead guitar as well.
While i was at it, i made a couple of minor corrections, using the
music video as reference.

Standard tuning


Intro arpeggio:
e|-0-----0-----0-----0-----|
B|---3-----3-----3-----3---|
G|-----2-----2-----2-----2-|
D|-------------------------|
A|-------------------------|
E|-------------------------|


Intro riff:
e|-----------------------------------|
B|------8-7------------8-7-/10-8-7---|
G|----7-----7\-------7-------------8-|
D|-/9-------------/9-----------------|  
A|-----------------------------------|
E|-----------------------------------|
    E5      D5     C5       B5   (Yui plays power chords)
    Em      D      C        B7   (acoustic on background)

e|-----------------------------------|
B|------8-7------------8-7-----------|
G|----7-----7\-------7-----8brbrbrbr-|
D|-/9-------------/9-----------------|  
A|-----------------------------------|
E|-----------------------------------|
    E5      D5     C5      B5   (Yui plays power chords)
    Em      D      C       B7   (acoustic on background)


Verse:
  Rhythm guitar - Yui
e|-------------------------------------|
B|-------------------------------------|
G|-9--9--9--7--7--7--5--5--5--5--5--5--| x4
D|-9--9--9--7--7--7--5--5--5--5--5--5--|
A|-77777777-55555555-33333333-33333333-|
E|-------------------------------------|
   ........ ........ ........ ........ P.M.

  Lead guitar (at 00:33 and 01:44)
e|-12~~--12-----*12*~~--12-------|
B|-12~~-----12--*12*~~-----12----|
G|-12~~---------*12*~~--------12-|
D|-14~~--------------------------|
A|-14~~--------------------------|
E|-12~~--------------------------|


Pre-chorus:
  Rhythm guitar - Yui
e|-----------------|
B|-----------------|
G|-99--99--99--5-7-| x2
D|-99--99--99--5-7-|
A|-77--77--77--3-5-|
E|-----------------|

  Lead guitar
e|-1212--1212--1212----------|
B|-1212--1212--1212----------|
G|---------------------5---7-| x2
D|-------------------0---0---|
A|---------------------------|
E|---------------------------|


Chorus:
  Rhythm guitar - Yui
e|-------------------------------------------|
B|-------------------------------------------|
G|-5-5-5-5-5-5-7-7-7-7-7-7-9-9-9-9-9-9-------|
D|-5-5-5-5-5-5-7-7-7-7-7-7-9-9-9-9-9-9--7--9-|
A|-3-3-3-3-3-3-5-5-5-5-5-5-7-7-7-7-7-7--7--9-|
E|--------------------------------------5--7-|

e|-------------------------------------------|
B|-------------------------------------------|
G|-5-5-5-5-5-5-7-7-7-7-7-7-9-9-9-9-9-9~~---7-|
D|-5-5-5-5-5-5-7-7-7-7-7-7-9-9-9-9-9-9~~---7-|
A|-3-3-3-3-3-3-5-5-5-5-5-5-7-7-7-7-7-7~~---5-|
E|-------------------------------------------|

e|-------------------------------------------|
B|-------------------------------------------|
G|-5-5-5-5-5-5-7-7-7-7-7-7-9-9-9-9-9-9-------|
D|-5-5-5-5-5-5-7-7-7-7-7-7-9-9-9-9-9-9--7--9-|
A|-3-3-3-3-3-3-5-5-5-5-5-5-7-7-7-7-7-7--7--9-|
E|--------------------------------------5--7-|

e|-----------------|
B|-----------------|
G|-5-5-5-5-5-5-7~~-|
D|-5-5-5-5-5-5-7~~-|
A|-3-3-3-3-3-3-5~~-|
E|-----------------|

  Lead guitar
e|--------10-----12--------------|
B|-12~~~~----12-----12~~~~----10-|
G|-------------------------------|
D|-------------------------7-9---|
A|-------------------------7-9---|
E|-------------------------5-7---|

e|--------10--------15-14-12-----------|
B|-12~~~~----12~~~~-------------*12*~~-|
G|------------------------------*12*~~-|
D|------------------------------*12*~~-|
A|-------------------------------------|
E|-------------------------------------|

e|--------10-----12--------------|
B|-12~~~~----12-----12~~~~----10-|
G|-------------------------------|
D|-------------------------7-9---|
A|-------------------------7-9---|
E|-------------------------5-7---|

e|--------10----|
B|-12~~~~----12-|
G|--------------|
D|--------------|
A|--------------|
E|--------------|


Mess around in Em (one guitar uses flanger effect)

Play Verse
Play Pre-chorus

Play Chorus, but last bar like this:
e|-------------------------|
B|-------------------------|
G|-5-5-5-5-5-5-7-7-7-7-7-7-|
D|-5-5-5-5-5-5-7-7-7-7-7-7-|
A|-3-3-3-3-3-3-5-5-5-5-5-5-|
E|-------------------------|


Bridge:
  Rhythm guitar - Yui (full chords or power chords)
e|---------------------------------|
B|---------------------------------|
G|-----------------2-2-2-2-2-2-2-2-| x2
D|-3-3-3-3-5-5-5-5-2-2-2-2-2-2-2-2-|
A|-3-3-3-3-5-5-5-5-0-0-0-0-0-0-0-0-|
E|-1-1-1-1-3-3-3-3-----------------|

e|---------------------------------|
B|---------------------------------|
G|-----------------7-7-7-7-7-7-7-7-|
D|-3-3-3-3-3-3-3-3-7-7-7-7-7-7-7-7-|
A|-3-3-3-3-3-3-3-3-5-5-5-5-5-5-5-5-|
E|-1-1-1-1-1-1-1-1-----------------|

  Lead guitar
e|-1-3-----3-----0-----0---|---3-----3-----0-----0---|
B|-----------------0-----0-|-----------------0-----0-|
G|-----2-0---0-------------|-----2-0---0-------------|
D|-------------2-----2-----|-3-----------2-----2-----|
A|-------------------------|-------------------------|
E|-------------------------|-------------------------|

e|-------/12-13~~----14--------|
B|----------------------15-----|
G|-------------------------14\-|
D|-3~~~~-----------------------|
A|-----------------------------|
E|-----------------------------|


Solo:
  Lead guitar - Yui (for the solo only)
e|----------------------------------------------|
B|----------------------------------------------|
G|-/-8-8-8-7-7-7-----8-8-8-7-7-7------5--/7-7br-|
D|---------------8-8-------------8-8------------|
A|----------------------------------------------|
E|----------------------------------------------|

e|--------------------------------------8-8--10-8-10br~~\-|
B|----------------8-8-10-10-10-11-11-11-------------------|
G|-8-8-8-10-10-10-----------------------------------------|
D|--------------------------------------------------------|
A|--------------------------------------------------------|
E|--------------------------------------------------------|

  Rhythm guitar
e|---------------------------------------------|
B|---------------------------------------------|
G|-8-8-8-8-10-10-10-10-12-12-12-12-12-12-12-12-|
D|-8-8-8-8-10-10-10-10-12-12-12-12-12-12-12-12-|
A|-6-6-6-6--8--8--8--8-10-10-10-10-10-10-10-10-|
E|---------------------------------------------|

e|--------------------------------|
B|--------------------------------|
G|-8-8-8-8-10-10-10-10-7-7-7-7-7~-|
D|-8-8-8-8-10-10-10-10-7-7-7-7-7~-|
A|-6-6-6-6--8--8--8--8-5-5-5-5-5~-|
E|--------------------------------|


Post-solo:
e|-------------------------------------|
B|-------------------------------------|
G|-9--9--9--7--7--7--9--9--9--9--9--9--|
D|-9--9--9--7--7--7--9--9--9--9--9--9--|
A|-77777777-55555555-77777777-77777777-|
E|-------------------------------------|
   ........ ........ ........ ........ P.M.

e|--------------------------------|
B|--------------------------------|
G|-5--5--5--7--7--7--9--9--9--9-7-|
D|-5--5--5--7--7--7--9--9--9--9-7-|
A|-33333333-55555555-7777777--7-5-|
E|--------------------------------|
   ........ ........ .......      P.M.


Play Chorus
Play Intro riff
End with Em or E5 (7th fret, A string)





Comments


Popular Yui tabs & chords
Cooking Chords
Life Accoustic Chords
To Mother 1 Chords
Rolling Star Tabs
Rolling Star Intro Tabs
Yozora No Mukou Tabs
Again Ukulele
Life Accoustic Ukulele
Tokyo Live Ukulele
Why Ukulele


Song lyrics



↑ Back to top | Tablatures and chords are parodies/interpretations of the original songs. You may use it for private study, scholarship, research or language learning purposes only
© 2014 AZChords.com Contact us | Privacy policy | DMCA | Add/correct tabs | Request tabs | Top 50 tabs