» » »

Yui, Jam Tabs (ver.1)

Artists:  A B C D E F G H I J K L M N O P Q R S T U V W X Y Z # 

Jam Tabs (ver.1)

Yui Tabs
 Rating:
4/5 (4 votes)
Jam lessons Tabs too difficult? Try these video lessons and learn fast
                JAM by YUI
B-side song from single 'LOVE & TRUTH' (2007)

Tuning is Standard.

Hello. I'd just like to point out that the Jam chords sent in by the other person were
but missed some things. Here's my version of the song. I'm pretty sure it's very correct.
free to make any changes.


Notes:
* Remember to make half rests when playing the opening/ending chords.
* Note that there is an acoustic guitar in this song, as well as two electric guitars,
a bass. The chords are meant for the rhythm guitarist, and the tabs are meant for the
guitarist.
* During the solo part in this song, I have added in a chord which looks like this: Bm7
This means that this is another version of the Bm7 chord tabbed like this:

e|------3-------|
B|--------------|
G|------2-------|
D|--1-----------|
A|--------------|
E|--------------|

~~~~~~~~~~~~~~~~~~~~~~~~~~~~~~~~~~~~~~~~~

Alright, I hope you enjoy the song! Please feel free to leave any comments.

Opening chords:
Em7 G Am7 D D


e|---------------------|----------------------|----------------------|
B|---------------------|----------------------|----------------------|
G|---7-----9-----7-----|---7-----9-----7------|---7-----9-----7------|
D|---------------------|----------------------|----------------------|
A|---------------------|----------------------|----------------------|
E|---------------------|----------------------|----------------------|

 |---------------------|----------------------|----------------------|
 |--5------8-----10--10|--5-----8-------10-10-|----------------------|
 |7---7--9--9-11-------|7---7-9----9-11------7|----------------------|
 |---------------------|----------------------|----------------------|
 |---------------------|----------------------|----------------------|
 |---------------------|----------------------|----------------------|


Em7          G      Am7           D
Nando ieba ii no anata ga omou hodo ii ko ja nai

Em7      G              Am7             D
GASORIN SUTANDO no kado wo magaru furui souko no naka


B7                     C         C7
RAIVU HAUSU gaeri no BANDO tachi

B7                    C           B7
atsumete JAMUru mokuyoubi no yoru


     C                G               D               Em7
PUNK ROCK ga suki na aitsu wa natsu demo kawaJAN wo kiteru

       C             G                D
Chotto okashiku omou keredo saikou na jikan

     Am7
Oh anarchy in the night Yeah!

e|-8-------------------|----------------------|----10-10-------------|
B|----7---9--9---------|--9-------------------|-10-------10-12--12---|
G|---------------------|----------------------|----------------------|
D|---------------------|----------------------|----------------------|
A|---------------------|----------------------|----------------------|
E|---------------------|----------------------|----------------------|

 |-12------------------|----------------------|----------------------|
 |---------------------|----------------------|----------------------|
 |---------------------|----------------------|----------------------|
 |---------------------|----------------------|----------------------|
 |---------------------|----------------------|----------------------|
 |---------------------|----------------------|----------------------|

Em7           G           Am7              D
Ash*ta TEREBI da yo to denwa ga naru gomen ne kaera nakucha

Em7    G             Am7                      D
Punk's not dead! HEN na kao sh*te warawase te kureta ne

           B7       C      C7
Mukae ni konaku temo ii noni

B7                   C                 B7
Menkyo to BAIKU ga hoshiku natte kichau


C                     G       D                  Em7
PUNK ROCK ga suki na aitsu no RESUPOORU wa omo sugiru

       C                   G             D
Atashi ga DORAMU wo tataku kara saigo ni Oh Baby

     Am7                Am7
Oh anarchy in the night Yeah!

Here comes the...
Solo part!:
e|-12------------------|----------------------|----------------------|
B|---12-------15-15----|---10------8-8-----10-|-12-------16--17--19--|
G|---------------------|----------------------|----------------------|
D|---------------------|----------------------|----------------------|
A|---------------------|----------------------|----------------------|
E|---------------------|----------------------|----------------------|

(During the ENTIRE solo part, rythym guitarist plays following chords with half
rests, respectively:)

G D  Bm7(al.) Em7 C G Am7 B7

 |---------------------|----19-19-------------|-15---15--14-14----12-|
 |--17-----------------|----------------------|----------------------|
 |---------------------|----------------------|----------------------|
 |---------------------|----------------------|----------------------|
 |---------------------|----------------------|----------------------|
 |---------------------|----------------------|----------------------|

 |--17---15-15----14---|----------------------|----15--15--14--------|
 |---------------------|------------------15--|-17-------------------|
 |---------------------|--------14-16--17-----|----------------------|
 |---------------------|--16-17---------------|----------------------|
 |---------------------|----------------------|----------------------|
 |---------------------|----------------------|----------------------|

 |-17---17---15-15--17-|--17-17---------------|----------------------|
 |---------------------|----------------------|----------------------|
 |---------------------|----------------------|----------------------|
 |---------------------|----------------------|----------------------|
 |---------------------|----------------------|----------------------|
 |---------------------|----------------------|----------------------|

       C                G             D                     Em7
Kuchibiru wo chotto togarase te aitsu no shigusa wo mane te miru

       C                  G
Atashi no Guitar ni datte My Rocks
       D               Am7
Make teru tsumori wa nai kara ne

C         G                       D               Em7
PUNK ROCK ga ikita jidai wa ima demo zutto tsuzui teru

       C                  G                  D
Chotto kurai kowashi te yuka nakucha Oh Baby No Future

     Am7
Oh anarchy in the night Yeah!

End: (Repeat Opening)
Em7 G Am7 D

(End chord) Em

e|---------------------|----------------------|----------------------|
B|---------------------|----------------------|----------------------|
G|---7-----9-----7-----|---7-----9-----7------|---7-----9-----7------|
D|---------------------|----------------------|----------------------|
A|---------------------|----------------------|----------------------|
E|---------------------|----------------------|----------------------|

 |---------------------|---------10--10-------|----------------------|
 |--5-----8------10-10-|----8-8---------------|----------------------|
 |7---7-9---9-11-------|-9--------------------|----------------------|
 |---------------------|----------------------|----------------------|
 |---------------------|----------------------|----------------------|
 |---------------------|----------------------|----------------------|
            
Submit corrections

comments powered by Disqus
↑ Back to top | Yui Tabs for Jam. Lyrics for acoustic guitar and electric guitar. Tablatures and chords are parodies/interpretations of the original songs. You may use it for private study, scholarship, research or language learning purposes only