>
 >
Nasty Habits

Nasty Habits Guitar Tabs

You Me At Six - Nasty Habits chords, tabs, tablatures, lyrics

Guitar lessons | Add/correct | Request | Top 50 tabs Artists:  A B C D E F G H I J K L M N O P Q R S T U V W X Y Z 0-9

Nasty Habits Guitar Tabs – You Me At Six

CD, Sheet music, Poster

Do you like Nasty Habits? Share with your friends now
ChordsTabsUkulele

Tuning: Drop D

It may not be the whole song, but at least it's something
Both guitars are in Drop D, thought I suppose it doesn't matter with Gtr I

  Q=160
 4/4
  Gtr I
  E E E E E E E E E E E E  E  E  E  E E E E E E E E E E E E E E E E E
|-----------------------------------------------------------------------|
|-9-9-9-7-7-7-9-9-9-7-7-7-12-12-12-12-9-9-9-7-7-7-9-9-9-7-7-7-0-0-0-0---|
|-9-9-9-9-9-9-9-9-9-9-9-9--9--9--9--9-9-9-9-9-9-9-9-9-9-9-9-9-8-8-8-8---|
|-----------------------------------------------------------------------|
|-----------------------------------------------------------------------|
|-----------------------------------------------------------------------|


    Gtr I
    E E E E E E E E   E E E E  E  E  E  E   E E E E E E E E   E E E E E E E E
||------------------|---------------------|-----------------|----------------|
||o-9-9-9-7-7-7-9-9-|-9-7-7-7-12-12-12-12-|-9-9-9-7-7-7-9-9-|-9-7-7-7-0-0-0-0|
||--9-9-9-9-9-9-9-9-|-9-9-9-9--9--9--9--9-|-9-9-9-9-9-9-9-9-|-9-9-9-9-8-8-8-8|
||------------------|---------------------|-----------------|----------------|
||o-----------------|---------------------|-----------------|----------------|
||------------------|---------------------|-----------------|----------------|
|
|   Gtr II
|   E E E E E E E E   E E E E  E  E  E  E   E E E E E E E E   E E E E E E E E
||------------------|---------------------|-----------------|----------------|
||o-----------------|---------------------|-----------------|----------------|
||------------------|---------------------|-6-6-6-6-6-6-6-6-|-6-6-6-6-6-6-6-6|
||--2-2-2-2-2-2-2-2-|-2-2-2-2--2--2--2--2-|-6-6-6-6-6-6-6-6-|-6-6-6-6-6-6-6-6|
||o-2-2-2-2-2-2-2-2-|-2-2-2-2--2--2--2--2-|-4-4-4-4-4-4-4-4-|-4-4-4-4-4-4-4-4|
||--2-2-2-2-2-2-2-2-|-2-2-2-2--2--2--2--2-|-----------------|----------------|


  Gtr I
  E E E E E E E E   E E E E  E  E  E  E
|-----------------|---------------------|
|-9-9-9-7-7-7-9-9-|-9-7-7-7-12-12-12-12-|
|-9-9-9-9-9-9-9-9-|-9-9-9-9--9--9--9--9-|
|-----------------|---------------------|
|-----------------|---------------------|
|-----------------|---------------------|
|
| Gtr II
| E E E E E E E E   E E E E  E  E  E  E
|-----------------|---------------------|
|-----------------|---------------------|
|-2-2-2-2-2-2-2-2-|-2-2-2-2--2--2--2--2-|
|-2-2-2-2-2-2-2-2-|-2-2-2-2--2--2--2--2-|
|-0-0-0-0-0-0-0-0-|-0-0-0-0--0--0--0--0-|
|-----------------|---------------------|


  E E E E E E E E    E  E  E  E  E  E  E  E
|-----------------|--------------------------||
|-9-9-9-9-9-9-9-9-|-12-12-12-12-12-12-12-12-o||
|-9-9-9-9-9-9-9-9-|--9--9--9--9--9--9--9--9--||
|-----------------|--------------------------||
|-----------------|-------------------------o||
|-----------------|--------------------------||
|
| E E E E Q   Q      E  E  E  E  Q     Q
|-----------------|--------------------------||
|-----------------|-------------------------o||
|---------4---4---|--------------4-----4-----||
|-4-4-4-4-4---4---|--4--4--4--4--4-----4-----||
|-2-2-2-2-2---2---|--2--2--2--2--2-----2----o||
|-----------------|--------------------------||


  Gtr I
  E E E E E E E E E E E E  E E  E E E E E E E E E E E E E Q Q Q
|------------------------------------------------------------------|
|-7h9-9---9---7h9-9---9---12---12---7h9-9---9---7h9-9---9----------|
|-9-9-9---9---9-9-9---9----9----9---9-9-9---9---9-9-9---9----------|
|------------------------------------------------------------------|
|------------------------------------------------------------------|
|------------------------------------------------------------------|
|
| Gtr II
| W               E E E E  E E  E E
|------------------------------------------------------------------|
|------------------------------------------------------------------|
|------------------------------------------------------------------|
|-2----------------------------------------------------------------|
|-2--------------------------2----2--------------------------------|
|-2--------------------------2----2--------------------------------|


    Gtr I
    E E E E E E E E   E E E E  E E  E E   E E E E E E E E   E E E E  E E  E E
||------------------|-------------------|-----------------|------------------|
||o-7h9-9---9---7h9-|-9---9---12---12---|-7h9-9---9---7h9-|-9---9---12---12--|
||--9-9-9---9---9-9-|-9---9----9----9---|-9-9-9---9---9-9-|-9---9----9----9--|
||------------------|-------------------|-----------------|------------------|
||o-----------------|-------------------|-----------------|------------------|
||------------------|-------------------|-----------------|------------------|
|
|   Gtr II
|   E E E E E E E E   E E E E  E E  E E   E E E E E E E E   E E E E  E E  E E
||------------------|-------------------|-----------------|------------------|
||o-----------------|-------------------|-----------------|------------------|
||------------------|-------------------|-----------------|------------------|
||--9---9---9---9-9-|-9---9----9----9---|-6---6---6---6-6-|-6---6----6----6--|
||o-7---7---7---7-7-|-7---7----7----7---|-4---4---4---4-4-|-4---4----4----4--|
||------------------|-------------------|-----------------|------------------|


  Gtr I
  E E E E E E E E   E E E E  E E  E E   E E E E E E E E   E E E E E E E E
|-----------------|-------------------|-----------------|------------------||
|-7h9-9---9---7h9-|-9---9---12---12---|---0---0---0---0-|-----------------o||
|-9-9-9---9---9-9-|-9---9----9----9---|-8---8---8---8---|-9-9-9-9-9-9-9-9--||
|-----------------|-------------------|-----------------|------------------||
|-----------------|-------------------|-----------------|-----------------o||
|-----------------|-------------------|-----------------|------------------||
|
| Gtr II
|                                       PM----|           PM----|
| E E E E E E E E   E E E E  E E  E E   E E E E Q   Q     E E E E Q   Q
|-----------------|-------------------|-----------------|------------------||
|-----------------|-------------------|-----------------|-----------------o||
|-----------------|-------------------|---------4---4---|---------4---4----||
|-2---2---2---2-2-|-2---2----2----2---|-4-4-4-4-4---4---|-4-4-4-4-4---4----||
|-0---0---0---0-0-|-0---0----0----0---|-2-2-2-2-2---2---|-2-2-2-2-2---2---o||
|-----------------|-------------------|-----------------|------------------||


  Gtr I
   E E  E E  E E  E E  E E  E E  E E  E E E E E E E E E E E E E E E E E E
|----------------------------------------------------------------------------|
|-12---12---12---12---12---12---12---12---9---9---9---9---9---9---9---9------|
|----9----9----9----9----9----9----9----9---9---9---9---9---9---9---9---9----|
|----------------------------------------------------------------------------|
|----------------------------------------------------------------------------|
|----------------------------------------------------------------------------|
|
| Gtr II
|  E E  E E  E E  E E  E E  E E  E E  E E E E E E E E E E E E E E E E E E
|----------------------------------------------------------------------------|
|----------------------------------------------------------------------------|
|----------------------------------------------------------------------------|
|--6-6--6-6--6-6--6-6--6-6--6-6--6-6--6-6-2-2-2-2-2-2-2-2-2-2-2-2-2-2-2-2----|
|--4-4--4-4--4-4--4-4--4-4--4-4--4-4--4-4-0-0-0-0-0-0-0-0-0-0-0-0-0-0-0-0----|
|----------------------------------------------------------------------------|


    Gtr I
    E E E E E E E E E E E E E  E  E  E E E E E E E E E E E E E E E E E
||-----------------------------------------------------------------------|
||o-----9-----7---9-----7-----12-12-12-----7-----9---7-----9-----7-x-7---|
||--8-9---9-9---9---8-9---9-9----------8-9---9-9---9---9-9---8-9---------|
||-----------------------------------------------------------------------|
||o----------------------------------------------------------------------|
||-----------------------------------------------------------------------|
|
|   Gtr II
|   E E E E E E E E E E E E E  E  E  E E E E E E E E E E E E E E E E E
||-----------------------------------------------------------------------|
||o----------------------------------------------------------------------|
||-------------------------------------6-6-6-6-6-6-6-6-6-6-6-6-6-6-6-6---|
||--2-2-2-2-2-2-2-2-2-2-2-2-2--2--2--2-6-6-6-6-6-6-6-6-6-6-6-6-6-6-6-6---|
||o-2-2-2-2-2-2-2-2-2-2-2-2-2--2--2--2-4-4-4-4-4-4-4-4-4-4-4-4-4-4-4-4---|
||--2-2-2-2-2-2-2-2-2-2-2-2-2--2--2--2-----------------------------------|


  Gtr I
  E E E E E E E E   E E E E E  E  E  E   E E E E E E E E   E E E E E E E E
|-----------------|--------------------|-----------------|------------------||
|-----7-----9---7-|-----7-----12-12-12-|-0-0-0-0-0-0-0-0-|-0-0-0-0-0-0-0-0-o||
|-8-9---9-9---9---|-8-9---9-9----------|-9-9-9-8-8-8-6-6-|-6-4-4-4-4-4-4-4--||
|-----------------|--------------------|-----------------|------------------||
|-----------------|--------------------|-----------------|-----------------o||
|-----------------|--------------------|-----------------|------------------||
|
| Gtr II
| E E E E E E E E   E E E E E  E  E  E   E E E E Q   Q     E E E E Q   Q
|-----------------|--------------------|-----------------|------------------||
|-----------------|--------------------|-----------------|-----------------o||
|-2-2-2-2-2-2-2-2-|-2-2-2-2-2--2--2--2-|---------4---4---|---------4---4----||
|-2-2-2-2-2-2-2-2-|-2-2-2-2-2--2--2--2-|-4-4-4-4-4---4---|-4-4-4-4-4---4----||
|-0-0-0-0-0-0-0-0-|-0-0-0-0-0--0--0--0-|-2-2-2-2-2---2---|-2-2-2-2-2---2---o||
|-----------------|--------------------|-----------------|------------------||



| /  slide up
| \  slide down
| h  hammer-on
| p  pull-off
| ~  vibrato
| +  harmonic
| x  Mute note





Comments


Popular You Me At Six tabs & chords
Stay With Me 2 Bass Tabs
Finders Keepers 1 Chords
Liquid Confidence 2 Chords
Stay With Me Chords
Underdog Chords
Blue Eyes Dont Lie Intro Tabs
Tigers And Sharks Intro 1 Tabs
Youve Made Your Bed Tabs
Little Bit Of Truth Ukulele
No One Does It Better Ukulele


Song lyrics



↑ Back to top | Tablatures and chords are parodies/interpretations of the original songs. You may use it for private study, scholarship, research or language learning purposes only
© 2014 AZChords.com Contact us | Privacy policy | DMCA | Add/correct tabs | Request tabs | Top 50 tabs