» » »

You Me At Six, Little Bit Of Truth Tabs (ver.1)

Artists:  A B C D E F G H I J K L M N O P Q R S T U V W X Y Z # 

Little Bit Of Truth Tabs (ver.1)

You Me At Six Tabs
 Rating:
4/5 (4 votes)
Little Bit Of Truth lessons Tabs too difficult? Try these video lessons and learn fast
                Tuning: drop d  ....capo on 1st fret

e|-------------0-------------------------------0-------------------------------------|
B|-------------0-------------------------------0-------------------------------------|
G|---------4--------4------4-------------4----------4-------4------------------------|
D|-----------------------------------------------------------------------------------|
A|-----2---------------2-------------4------------------4----------------------------|
E|-----------------------------------------------------------------------------------|

e|------------0---------------------------0-----------------------------------------|
B|------------0----------------------------0-----------------------------------------|
G|--------4-------4------4------------4-------4--------4-----------------------------|
D|-----------------------------------------------------------------------------------|
A|----0--------------0-------------0--------------0----------------------------------|
E|-----------------------------------------------------------------------------------|

Chorus

e|------------------------------------------------------------------------------------|
B|------------------------------------------------------------------------------------|
G|--------------5------------------5------------5------3------------------------------|
D|---3----------5---------3--------5-------3----5------3------------------------------|
A|---3----------3---------3--------3------3-----3------1------------------------------|
E|---3--------------------3---------------3-------------------------------------------|
            
Submit corrections

comments powered by Disqus
↑ Back to top | You Me At Six Tabs for Little Bit Of Truth. Lyrics for acoustic guitar and electric guitar. Tablatures and chords are parodies/interpretations of the original songs. You may use it for private study, scholarship, research or language learning purposes only