» » »

Hard To Swallow Tabs (ver.1)

Artists:  A B C D E F G H I J K L M N O P Q R S T U V W X Y Z # 

Hard To Swallow Tabs (ver.1)

You Me At Six
Rating:
5/5 (5 votes)

Hard to play? Try these video lessons and learn fast.
                Hard to Swallow tabs:

Introduction:

   Bb     C    Dm
E|-----|-----|---|
B|3-1-1|5-3-3|6-5|
G|3-3-3|5-5-5|7-7|
D|3-3-3|5-5-5|7-7|
A|-----|-----|---|
E|-----|-----|---|

Verse 1:
                 Bb     C
It seems hard to swallow
                               Dm
You keep your thoughts by your pillow
                  Bb      C
Just so you can adore them
                   Dm
And just so we can ignore them

Verse 2:
                     Bb     C
I'd rather lead than follow
                        Dm
I'd rather stay and not go home
                  Bb      C
My moves have got so old
                Dm
Or so I've been told

Post Chorus:
    C
But now you've lost it all

Chorus:
F
We're running out of time
          C
We've got things on our mind
                              Dm
And things that we just don't like

Who do you want to see?
C
Who do you want to be tonight?

Solo 1:

E|-----|----------|---------|--|
B|6-8-5|6-5-------|---------|--|
G|-----|---5-7-7-7|-5-------|--|
D|-----|----------|7-5-3-2-0|12|
A|-----|----------|---------|--|
E|-----|----------|---------|--|

Verse 3: [Bass solo]

Forgetting the promises that you make

Is how your, your promises easily break     [Guitar comes]
                Bb   C                     Dm
You sit on your fence and I'll take on the risk
              Bb    C                  Dm
I'll count my losses and I'll count my fears

Post Chorus:
      C
And I hope you've cleared your head

Chorus:
F 
We're running out of time
          C
We've got things on our mind
                              Dm
And things that we just don't like
                        C
Who do you want to see?

Who do you want be tonight?

[Repeat] 

Solo 2:

E|-------------------------------|-------------------------------|
B|6-6-6-6-6-6-6-6-6-6-6-6-8-8-8-8|5-5-5-5-5-5-5-5-5-5-5-5-6-6-6-6|
G|-------------------------------|-------------------------------|
D|-------------------------------|-------------------------------|
A|-------------------------------|-------------------------------|
E|-------------------------------|-------------------------------|

E|-------------------------------|-------------------------------|
B|-------------------------------|5-5-5-5-5-5-5-5-5-5-5-5-5-5-5-5|
G|7-7-7-7-7-7-7-7-7-7-7-7-6-6-6-6|-------------------------------|
D|-------------------------------|-------------------------------|
A|-------------------------------|-------------------------------|
E|-------------------------------|-------------------------------|

[Repeat solo in the following verse]

Verse 4:

We were young and we were blind

We ignored the warning signs

How were we to know?

How were we to know?

Verse 5:

We were close but still so far

We grew apart and out of touch

All I wanted was

All I wanted was to say

Bridge:  [strum and hold]
F
We're running out of time
          C
We've got things on our mind
                              Dm
And things that we just don't like
                        C
Who do you want to see?
  
Who do you want be tonight?

[Repeat chord sequence for chorus]

thank you for using my tabs anf i hope you find it useful :)
            
Hard to play? Try these video lessons and learn fast. | Correct




comments powered by Disqus
↑ Back to top | Tablatures and chords are parodies/interpretations of the original songs. You may use it for private study, scholarship, research or language learning purposes only