>
 >
Call That A Comeback

Call That A Comeback Guitar Tabs

You Me At Six - Call That A Comeback chords, tabs, tablatures, lyrics

Guitar lessons | Add/correct | Request | Top 50 tabs Artists:  A B C D E F G H I J K L M N O P Q R S T U V W X Y Z 0-9

Call That A Comeback Guitar Tabs – You Me At Six

CD, Sheet music, Poster

Do you like Call That A Comeback? Share with your friends now
ChordsTabsUkulele
Right this is my second full guitar tab and i worked this out totally by myself so its
not 100% accurate. im not sure about the arrangement of it but each section seems right
me. this is only rhythm guitar btw... i couldnt hear the lead clearly enough to tab 
Rate please :]
BTW

YOU ME AT SIX ROCK!
anyways.... good luck learnin it :]

Tuning : Drop D

     Intro/verse
     E           E  E  E  E  E  E  E     E  E  E  E  E  E  E  E
E||-----------------------------------|--------------------------|
B||--2-----------2-----4--4-----4--4--|-----4--4-----4-----4-----|
G||--3-----------3-----6--6-----6--6--|-----6--6-----6-----6-----|
D||--1-----------1-----4--4-----4--4--|-----4--4-----4-----4-----|
A||--1-----------1-----4--4-----4--4--|-----4--4-----4-----4-----|
D||--1-----------1-----4--4-----4--4--|-----4--4-----4-----4-----|


  E  E  E  E  E  E  E  E     E  E  E  E  E  E  E  E   4x
--------------------------|---------------------------||
--2--2-----4--4-----4--4--|-----4--4-----4-----4------||
--3--3-----6--6-----6--6--|-----6--6-----6-----6-----*||
--1--1-----4--4-----4--4--|-----4--4-----4-----4-----*||
--1--1-----4--4-----4--4--|-----4--4-----4-----4------||
--1--1-----4--4-----4--4--|-----4--4-----4-----4------||


   Pre Chorus
   PM         PM PM PM PM PM PM PM    PM PM PM PM PM PM PM PM
   E          E  E  E  E  E  E  E     E  E  E  E  E  E  E  E
-----------------------------------|--------------------------|
-----------------------------------|--------------------------|
*----------------------------------|--------------------------|
*----------------------------------|--------------------------|
-----------------------------------|--------------------------|
---6----------6--6--6--6--6--6--6--|--6--6--6--6--6--8--8--8--|


  PM PM PM PM PM PM PM PM    PM PM PM PM PM PM PM PM
  E  E  E  E  E  E  E  E     E  E  E  E  E  E  E  E
--------------------------|---------------------------||
--------------------------|---------------------------||
--------------------------|--------------------------*||
--------------------------|--------------------------*||
--------------------------|---------------------------||
--4--4--4--4--4--4--4--4--|--4--4--4--4--4--4--4--4---||


   Chorus
   E      E  E  E  E  E  E  E     E  E  E  E  E  E  E  E
-------------------------------|--------------------------|
-------------------------------|--------------------------|
*--3------3--3--3--3--3--3--3--|--3--3--3--3--3--6--6--6--|
*--3------3--3--3--3--3--3--3--|--3--3--3--3--3--6--6--6--|
---1------1--1--1--1--1--1--1--|--1--1--1--1--1--4--4--4--|
-------------------------------|--------------------------|


  E  E  E  E  E  E  E  E     E  E  E  E  E  E  E  E
--------------------------|--------------------------|
--------------------------|--------------------------|
--------------------------|--------------------------|
--4--4--4--4--4--4--4--4--|--4--4--4--4--4--4--4--4--|
--4--4--4--4--4--4--4--4--|--4--4--4--4--4--4--4--4--|
--4--4--4--4--4--4--4--4--|--4--4--4--4--4--4--4--4--|


  E  E  E  E  E  E  E  E     E  E  E  E  E  E  E  E
--------------------------|--------------------------|
--------------------------|--------------------------|
--------------------------|-----6--6-----6-----6-----|
--6--6-----8--8-----4--4--|-----6--6-----6-----6-----|
--6--6-----8--8-----4--4--|-----4--4-----4-----4-----|
--6--6-----8--8-----4--4--|--------------------------|


  E  E  E  E  E  E  E  E     E  E  E  E  E  E  E  E
--------------------------|---------------------------||
--------------------------|---------------------------||
--------------------------|--------------------------*||
--6--6-----8--8-----4--4--|--4--4--4--4--4--4--4--4--*||
--6--6-----8--8-----4--4--|--4--4--4--4--4--4--4--4---||
--6--6-----8--8-----4--4--|--4--4--4--4--4--4--4--4---||


  Bridge
  E      E  E  E  E  E  E  E     E  E  E  E  E  E  E
------------------------------|-----------------------|
--2------2-----4--4-----4--4--|-----4--4-----4-----4--|
--3------3-----6--6-----6--6--|-----6--6-----6-----6--|
--1------1-----4--4-----4--4--|-----4--4-----4-----4--|
--1------1-----4--4-----4--4--|-----4--4-----4-----4--|
--1------1-----4--4-----4--4--|-----4--4-----4-----4--|


    Verse
    E     E  E  E  E  E  E  E     E  E  E  E  E  E  E  E
|------------------------------|--------------------------|
|---2-----2-----4--4-----4--4--|-----4--4-----4-----4-----|
|*--3-----3-----6--6-----6--6--|-----6--6-----6-----6-----|
|*--1-----1-----4--4-----4--4--|-----4--4-----4-----4-----|
|---1-----1-----4--4-----4--4--|-----4--4-----4-----4-----|
|---1-----1-----4--4-----4--4--|-----4--4-----4-----4-----|


  E  E  E  E  E  E  E  E     E  E  E  E  E  E  E  E   4x
--------------------------|---------------------------||
--2--2-----4--4-----4--4--|-----4--4-----4-----4------||
--3--3-----6--6-----6--6--|-----6--6-----6-----6-----*||
--1--1-----4--4-----4--4--|-----4--4-----4-----4-----*||
--1--1-----4--4-----4--4--|-----4--4-----4-----4------||
--1--1-----4--4-----4--4--|-----4--4-----4-----4------||


  Pre Chorus?
  E           E  E  E  E  E  E  E     E  E  E  H        E
--------------------4--4-----4--4--|-----4--4--------------|
--2-----------2-----4--4-----4--4--|-----4--4--------------|
--3-----------3-----6--6-----6--6--|-----6--6--------------|
--1-----------1-----4--4-----4--4--|-----4--4--------------|
--1-----------1-----4--4-----4--4--|-----4--4--------------|
-----------------------------------|-----------------------|


  E  E  E  E  E  E  E  E     E  E  E  H        E
-----------4--4-----4--4--|-----4--4--------------|
--2--2-----4--4-----4--4--|-----4--4--------------|
--3--3-----6--6-----6--6--|-----6--6--------------|
--1--1-----4--4-----4--4--|-----4--4--------------|
--1--1-----4--4-----4--4--|-----4--4--------------|
--------------------------|-----------------------|


    Chorus
    E      E  E  E  E  E  E  E     E  E  E  E  E  E  E  E
|-------------------------------|--------------------------|
|-------------------------------|--------------------------|
|*--3------3--3--3--3--3--3--3--|--3--3--3--3--3--6--6--6--|
|*--3------3--3--3--3--3--3--3--|--3--3--3--3--3--6--6--6--|
|---1------1--1--1--1--1--1--1--|--1--1--1--1--1--4--4--4--|
|-------------------------------|--------------------------|


  E  E  E  E  E  E  E  E     E  E  E  E  E  E  E  E
--------------------------|--------------------------|
--------------------------|--------------------------|
--------------------------|--------------------------|
--4--4--4--4--4--4--4--4--|--4--4--4--4--4--4--4--4--|
--4--4--4--4--4--4--4--4--|--4--4--4--4--4--4--4--4--|
--4--4--4--4--4--4--4--4--|--4--4--4--4--4--4--4--4--|


  E  E  E  E  E  E  E  E     E  E  E  E  E  E  E  E
--------------------------|--------------------------|
--------------------------|--------------------------|
--------------------------|-----6--6-----6-----6-----|
--6--6-----8--8-----4--4--|-----6--6-----6-----6-----|
--6--6-----8--8-----4--4--|-----4--4-----4-----4-----|
--6--6-----8--8-----4--4--|--------------------------|


                                                          Middle 8
  E  E  E  E  E  E  E  E     E  E  E  E  E  E  E  E       W
--------------------------|---------------------------||-------------------|
--------------------------|---------------------------||--9----------------|
--------------------------|--------------------------*||--8----------------|
--6--6-----8--8-----4--4--|--4--4--4--4--4--4--4--4--*||--6----------------|
--6--6-----8--8-----4--4--|--4--4--4--4--4--4--4--4---||--6----------------|
--6--6-----8--8-----4--4--|--4--4--4--4--4--4--4--4---||--6----------------|


  W                   W                   W                   W
-------------------|-------------------|-------------------|-------------------|
--7----------------|--7----------------|--7----------------|--9----------------|
--6----------------|--6----------------|--6----------------|--8----------------|
--4----------------|--4----------------|--4----------------|--6----------------|
--4----------------|--4----------------|--4----------------|--6----------------|
--4----------------|--4----------------|--4----------------|--6----------------|


  W                   W                   E  E  E  E  E  E  E  E
-------------------|-------------------|--------------------------|
--7----------------|--7----------------|--7-----------------------|
--6----------------|--6----------------|--6--6--6--6--6--6--6--6--|
--4----------------|--4----------------|--4-----------------------|
--4----------------|--4----------------|--4--4--4--4--4--4--4--4--|
--4----------------|--4----------------|--4-----------------------|


                                                 Riff
  E  E  E  E  E  E  E  E     W                   E    E  E  E  E  E  E  E
--------------------------|-------------------|----------------------------|
--------------------------|-------------------|--2----2-----4--4-----4--4--|
--6--6--6--6--6--6--6--6--|-------------------|--3----3-----6--6-----6--6--|
--------------------------|-------------------|--1----1-----4--4-----4--4--|
--4--4--4--4--4--4--4--4--|-------------------|--1----1-----4--4-----4--4--|
--------------------------|-------------------|--1----1-----4--4-----4--4--|


                        Chorus
  W                     E      E  E  E  E  E  E  E     E  E  E  E  E  E  E  E
-------------------||-------------------------------|--------------------------|
-------------------||-------------------------------|--------------------------|
-------------------||*--3------3--3--3--3--3--3--3--|--3--3--3--3--3--6--6--6--|
-------------------||*--3------3--3--3--3--3--3--3--|--3--3--3--3--3--6--6--6--|
-------------------||---1------1--1--1--1--1--1--1--|--1--1--1--1--1--4--4--4--|
-------------------||-------------------------------|--------------------------|


  E  E  E  E  E  E  E  E     E  E  E  E  E  E  E  E
--------------------------|--------------------------|
--------------------------|--------------------------|
--------------------------|--------------------------|
--4--4--4--4--4--4--4--4--|--4--4--4--4--4--4--4--4--|
--4--4--4--4--4--4--4--4--|--4--4--4--4--4--4--4--4--|
--4--4--4--4--4--4--4--4--|--4--4--4--4--4--4--4--4--|


  E  E  E  E  E  E  E  E     E  E  E  E  E  E  E  E
--------------------------|--------------------------|
--------------------------|--------------------------|
--------------------------|-----6--6-----6-----6-----|
--6--6-----8--8-----4--4--|-----6--6-----6-----6-----|
--6--6-----8--8-----4--4--|-----4--4-----4-----4-----|
--6--6-----8--8-----4--4--|--------------------------|


  E  E  E  E  E  E  E  E     E  E  E  E  E  E  E  E
--------------------------|---------------------------||
--------------------------|---------------------------||
--------------------------|--------------------------*||
--6--6-----8--8-----4--4--|--4--4--4--4--4--4--4--4--*||
--6--6-----8--8-----4--4--|--4--4--4--4--4--4--4--4---||
--6--6-----8--8-----4--4--|--4--4--4--4--4--4--4--4---||


  Outro Chorus
  E            E  E  E  E  E  E  E     E  E  E  E  E  E  E  E
------------------------------------|--------------------------|
------------------------------------|--------------------------|
--3------------3--3--3--3--3--3--3--|--3--3--3--3--3--6--6--6--|
--3------------3--3--3--3--3--3--3--|--3--3--3--3--3--6--6--6--|
--1------------1--1--1--1--1--1--1--|--1--1--1--1--1--4--4--4--|
------------------------------------|--------------------------|


  E  E  E  E  E  E  E  E     E  E  E  E  E  E  E  E
--------------------------|--------------------------|
--------------------------|--------------------------|
--------------------------|--------------------------|
--4--4--4--4--4--4--4--4--|--4--4--4--4--4--4--4--4--|
--4--4--4--4--4--4--4--4--|--4--4--4--4--4--4--4--4--|
--4--4--4--4--4--4--4--4--|--4--4--4--4--4--4--4--4--|


  E  E  E  E  E  E  E  E     E  E  E  E  E  E  E  E     Q.     Q.     Q
--------------------------|--------------------------|---------------------|
--------------------------|--------------------------|---------------------|
--------------------------|-----6--6--6--6--6--6--6--|---------------------|
--6--6--6--8--8--8--4--4--|--4--6--6--6--6--6--6--6--|--6------8------4----|
--6--6--6--8--8--8--4--4--|--4--4--4--4--4--4--4--4--|--6------8------4----|
--6--6--6--8--8--8--4--4--|--4-----------------------|--6------8------4----|


  W
-------------------||
-------------------||
-------------------||
--L----------------||
--L----------------||
--L----------------||


Duration Legend
---------------
W - whole
H - half
Q - quarter
E - 8th
S - 16th
T - 32nd
X - 64th
. - note dotted
|-n-|  - n-tuplets


Tablature Legend
----------------
L - tied note
x - dead note
g - grace note
(n) - ghost note
> - accentuded note
NH - natural harmonic
AH - artificial harmonic
TH - tapped harmonic
SH - semi harmonic
PH - pitch harmonic
h - hammer on
p - pull off
b - bend
br - bendRelease
pb - preBend
pbr - preBendRelease
brb - bendReleaseBend
\n/ - tremolo bar dip
\n - tremolo bar dive
-/n - tremolo bar Release up
/n\ - tremolo bar inverted dip
/n - tremolo bar return
-\n - tremolo bar Release down
S - shift slide
s - legato slide
/ -  slide into from below or out of upwards
\ -  slide into from above or out of downwards
~ - vibrato
W - wide vibrato
tr - trill
TP - tremolo picking
T - tapping
S - slap
P - pop
< - fade in
^ - brush up
v - brush down





Comments


Popular You Me At Six tabs & chords
Finders Keepers 3 Chords
Stay With Me Chords
If You Run Tabs
No One Does It Better Intro 2 Tabs
Poker Face 1 Tabs
Sweet Feet Tabs
Take Your Breath Away 1 Tabs
Tigers And Sharks Tabs
Stay With Me Ukulele
The Dilemma Ukulele


Song lyrics



↑ Back to top | Tablatures and chords are parodies/interpretations of the original songs. You may use it for private study, scholarship, research or language learning purposes only
© 2014 AZChords.com Contact us | Privacy policy | DMCA | Add/correct tabs | Request tabs | Top 50 tabs