>
 >
Waltz For Zizi 1

Waltz For Zizi 1 Guitar Tabs

Yoko Kanno - Waltz For Zizi 1 chords, tabs, tablatures, lyrics

Guitar lessons | Add/correct | Request | Top 50 tabs Artists:  A B C D E F G H I J K L M N O P Q R S T U V W X Y Z 0-9

Waltz For Zizi 1 Guitar Tabs – Yoko Kanno

CD, Sheet music, Poster

Do you like Waltz For Zizi 1? Share with your friends now
TabsTabs v2
Waltz For Zizi
Composed by Yoko Kanno



|----|-----2s4----|-2---0-----|-----------|-----------|-----0---2s4|
|-0-0|-0--------4-|-2-------2-|-0---------|-----------|-0----------|
|----|-1----------|-2-------0-|-1---------|-----------|-1----------|
|----|-2----------|-2------(2)|(2)--------|-2---------|-2----------|
|----|-2----------|(0)--------|-----------|-2---------|-2----------|
|----|(0)---------|-----------|-----------|-0-------2-|-0----------|
  3    1   2   3    1   2   3   1   2   3   1   2   3   1   2   3   


|-4---5---4-|-2---------|-----------|-----5s--1-|-4---2-----|
|-6---------|-2---------|-2---------|-2---------|-3-------3-|
|-4---------|-2---------|-3---------|-2---------|-4---------|
|(6)--------|-4---------|-4---1---3-|-2---------|(1)--------|
|(4)--------|(4)--------|-3---------|(4)--------|-----------|
|-----------|(2)--------|-----------|(2)--------|-----------|
  1   2   3   1   2   3   1   2   3   1   2   3   1   2   3


|-----------|-----------|-----------|-----------|-----------|
|-2---------|-1---------|-0---2--s4-|-2---------|-0---2--s4-|
|-2---------|-2---------|-2---------|-2---------|-1---------|
|-4---------|-4---------|-1---------|-1---------|-2---------|
|(0)--------|(0)--------|(2)--------|(2)--------|(2)--------|
|-----------|-----------|-----------|-----------|(0)--------|
  1   2   3   1   2   3   1   2   3   1   2   3   1   2   3


|-----------|-----2s4---|-2---0-----|-----------|-----------|
|-2---------|-0-------4-|-2-------2-|-0---------|-----------|
|-2---------|-1---------|-2-------0-|-1---------|-----------|
|-1---------|-2---------|-2------(2)|(2)--------|-2---------|
|(2)--------|-2---------|(0)--------|-----------|-2---------|
|-----------|(0)--------|-----------|-----------|-0-------2-|
  1   2   3   1   2   3   1   2   3   1   2   3   1   2   3


|-----0--2s4|-4---5---4-|-2---------|-----------|-----5s--1-|
|-0---------|-6---------|-2---------|-2---------|-2---------|
|-1---------|-4---------|-2---------|-3---------|-2---------|
|-2---------|(6)--------|-4---------|-4---1---3-|-2---------|
|-2---------|(4)--------|(4)--------|-3---------|(4)--------|
|-0---------|-----------|(2)--------|-----------|(2)--------|
  1   2   3   1   2   3   1   2   3   1   2   3   1   2   3


|-4---2-----|-2---3-----|-0---------|-----0--2s4|-4-------4-|
|-5-------4-|-0-------2-|-2-------2-|-3---------|-7---------|
|-5---------|-1---------|-3---------|-2---------|-5---------|
|-----------|(2)--------|-----------|(4)--------|-----------|
|(0)--------|-----------|-----------|-----------|-----------|
|-----------|-----------|-----------|-----------|-----------|
  1   2   3   1   2   3   1   2   3   1   2   3   1   2   3

|-4---------|---------9-|-9---------|-----9----9|-9---9----9|
|-6---------|-----------|(10)-------|-----------|-----------|
|-6---------|-6---------|-9---------|-----9----9|-9---9----9|
|---------6-|-----------|-----------|-----------|-----------|
|-----4-----|-----------|-----------|-----------|-----------|
|-----------|-----------|-----------|-----------|-----------|
  1   2   3   1   2   3   1   2   3   1   2   3   1   2   3


|-9---8----9|-9--14--12-|12--10---9-|----10---9-|-----7---5-4|
|-----------|-----------|-----------|10---------|------------|
|-9---8----9|-9--14--13-|13--11---9-|----11--10-|-----7---6-4|
|-----------|-----------|-----------|11---------|------------|
|-----------|-----------|-----------|-----------|------------|
|-----------|-----------|-----------|-----------|------------|
  1   2   3   1   2   3   1   2   3   1   2   3    1   2   3


|-2---0-----|-----------|------------|-0---------|-7---------|
|--(2)------|-----------|------------|-0---------|(9)--------|
|-2---1-----|-----------|-----------1|-----------|-7---------|
|-----------|-----------|---------2--|-----------|-----------|
|-----------|-----------|-------2----|-----------|-----------|
|-----------|-----------|-0-2-4------|-----------|-----------|
  1   2   3   1   2   3    1   2   3   1   2   3   1   2   3


|-----7----7|-7---7----7|-7---6----7|-7---9---7-|-5---4---7-|
|-----------|-----------|-----------|-----------|-----------|
|-----7----7|-7---7----7|-7---6----7|-7---9---7-|-6---4---7-|
|-----------|-----------|-----------|-----------|-----------|
|-----------|-----------|-----------|-----------|-----------|
|-----------|-----------|-----------|-----------|-----------|
  1   2   3   1   2   3   1   2   3   1   2   3   1   2   3


|-7---5---2-|-0---------|-9p8h9---9h10p9--------|-9---------|
|---------1-|-----------|-----------|----10-----|(10)-------|
|-7---6-----|-2---------|-----------|-----------|-9---------|
|-----------|-----------|-----------|-----------|-----------|
|-----------|-----------|-----------|-----------|-----------|
|-----------|-----------|-----------|-----------|-----------|
  1   2   3   1   2   3   1   2   3   1   2   3   1   2   3


|-----9----9|-9---9----9|-9---8----9|-9--14--12-|12--10---9-|
|-----------|-----------|-----------|-----------|-----------|
|-----9----9|-9---9----9|-9---8----9|-9--14--13-|13--11---9-|
|-----------|-----------|-----------|-----------|-----------|
|-----------|-----------|-----------|-----------|-----------|
|-----------|-----------|-----------|-----------|-----------|
  1   2   3   1   2   3   1   2   3   1   2   3   1   2   3


|----10---9-|-9---7---5-4|-2---------|-----------|-2----------|
|10---------|------------|-----------|-----------|---3-2-0----|
|----11---9-|-9---7---6-4|-2---------|-----------|---------2--|
|11---------|------------|-----------|-----------|-----------4|
|-----------|------------|-----------|-----------|------------|
|-----------|------------|-----------|-----------|------------|
  1   2   3    1   2   3   1   2   3   1   2   3   1   2   3


|-2---------|-7---------|-----7----7|-7---7---7-|-7---6----7|
|-2---------|(9)--------|-----------|-----------|-----------|
|-2---------|-7---------|-----7----7|-7---7---7-|-7---6----7|
|-0---------|-----------|-----------|-----------|-----------|
|-----------|-----------|-----------|-----------|-----------|
|-----------|-----------|-----------|-----------|-----------|
  1   2   3   1   2   3   1   2   3   1   2   3   1   2   3


|-7--10---9-|-7---9---4-|-7---------|-5---------|-----------|-----------|
|-----------|-----------|-----------|-----5-----|-----5-----|---------0-|
|-7--11---9-|-7---9---4-|-7---------|-6-------6-|---------6-|-----------|
|-----------|-----------|-----------|-----------|-7---------|-7---------|
|-----------|-----------|-----------|-----------|-----------|-----------|
|-----------|-----------|-----------|-----------|-----------|-----------|
  1   2   3   1   2   3   1   2   3   1   2   3   1   2   3   1   2   3


|-----2s4----|-2---0-----|-----------|-----------|-----0---2s4|
|-0--------4-|-2-------2-|-0---------|-----------|-0----------|
|-1----------|-2-------0-|-1---------|-----------|-1----------|
|-2----------|-2------(2)|(2)--------|-2---------|-2----------|
|-2----------|(0)--------|-----------|-2---------|-2----------|
|(0)---------|-----------|-----------|-0-------2-|-0----------|
  1   2   3    1   2   3   1   2   3   1   2   3   1   2   3


|-4---5---4-|-2---------|-----------|-----5s--1-|-4---2-----|
|-6---------|-2---------|-2---------|-2---------|-3-------3-|
|-4---------|-2---------|-3---------|-2---------|-4---------|
|(6)--------|-4---------|-4---1---3-|-2---------|(1)--------|
|(4)--------|(4)--------|-3---------|(4)--------|-----------|
|-----------|(2)--------|-----------|(2)--------|-----------|
  1   2   3   1   2   3   1   2   3   1   2   3   1   2   3


|-----------|-----------|-----------|-----------|-----------|
|-2---------|-1---------|-0---2--s4-|-2---------|-0---2--s4-|
|-2---------|-2---------|-2---------|-2---------|-1---------|
|-4---------|-4---------|-1---------|-1---------|-2---------|
|(0)--------|(0)--------|(2)--------|(2)--------|(2)--------|
|-----------|-----------|-----------|-----------|(0)--------|
  1   2   3   1   2   3   1   2   3   1   2   3   1   2   3


|-----------|-----2s4---|-2---0-----|-----------|-----------|
|-2---------|-0-------4-|-2-------2-|-0---------|-----------|
|-2---------|-1---------|-2-------0-|-1---------|-----------|
|-1---------|-2---------|-2------(2)|(2)--------|-2---------|
|(2)--------|-2---------|(0)--------|-----------|-2---------|
|-----------|(0)--------|-----------|-----------|-0-------2-|
  1   2   3   1   2   3   1   2   3   1   2   3   1   2   3


|-----0--2s4|-4---5---4-|-2---------|-----------|-----5s--1-|
|-0---------|-6---------|-2---------|-2---------|-2---------|
|-1---------|-4---------|-2---------|-3---------|-2---------|
|-2---------|(6)--------|-4---------|-4---1---3-|-4---------|
|-2---------|(4)--------|(4)--------|-3---------|(4)--------|
|-0---------|-----------|(2)--------|-----------|(2)--------|
  1   2   3   1   2   3   1   2   3   1   2   3   1   2   3


|-4---------|-9---------|12---------|12---------|14---------|
|-5-------6-|-9------12-|11------14-|11---------|14---------|
|-5---------|-9---------|12---------|11---------|14---------|
|-----------|-----------|-----------|-----------|12---------|
|-----------|-----------|-----------|-----------|-----------|
|-----------|-----------|-----------|-----------|-----------|
  1   2   3   1   2   3   1   2   3   1   2   3   1   2   3


|12---------|-----------|
|12---------|-----------|
|13--13-----|-----------|
|14------14-|-----------|
|-----------|-11--------|
|-----------|-----------|
  1   2   3   1   2   3





Comments


Popular Yoko Kanno tabs & chords
Ask Dna Chords
Heavens Not Enough Tabs
Is It Real Tabs
Live In Baghdad Tabs
Take A Little Hand Tabs
Tank Tabs
Ask Dna Ukulele
Heavens Not Enough Ukulele
Psychedelic Soul Ukulele
The Real Folk Blues Ukulele


Song lyrics



↑ Back to top | Tablatures and chords are parodies/interpretations of the original songs. You may use it for private study, scholarship, research or language learning purposes only
© 2014 AZChords.com Contact us | Privacy policy | DMCA | Add/correct tabs | Request tabs | Top 50 tabs