» » »

Yoko Kanno, Wo Qui Non Coin Tabs (ver.1)

Artists:  A B C D E F G H I J K L M N O P Q R S T U V W X Y Z # 

Wo Qui Non Coin Tabs (ver.1)

Yoko Kanno Tabs
 Rating:
4.5/5 (8 votes)
Wo Qui Non Coin lessons Tabs too difficult? Try these video lessons and learn fast
                -------------------------------------------------------------------------------
-------------------------------------------------------------------------------


Tuning: a half step lower than standard tuning: Eb/G#/C#/F#/Bb/Eb
   
The whole song has this plucking style...
 
e|-------|-------|-------|
B|--5--5-|--5--5-|--1—-1-|
G|--5--5-|--5--5-|--2—-2-|
D|-------|-------|-------|
A|-------|-5-----|-------|
E|-5-----|-------|-3-----|

Here is the song:


Part 1:

   x2     x2                x2               x2    x3      
e|-----|-----|-----|-----|-----|-----|-----|-----|-----|-----|
B|--5--|--5--|--1—-|--5--|--5--|--5--|--3--|--5—-|--1--|--5--|
G|--5--|--5--|--2—-|--4—-|--5--|--5--|--4—-|--5—-|--2--|--4--|
D|-----|-----|-----|-----|-----|-/3--|--2--|-----|-----|-----|
A|-----|--5--|-----|-----|-----|-----|-----|--5--|-----|-----|
E|--5--|-----|--3--|--4--|--5--|-----|-----|-----|--3--|--4--| 

    x2   x2             x2              x2   x4
e|------------------------------------------------|
B|---5----5----1----5----5-----5----3----5----1---|
G|---5----5----2----4----5-----5----4----5----2---|
D|----------------------------/3----2-------------|
A|--------5------------------------------5--------|
E|---5---------3----4----5--------------------3---|


Part 2:

    x2  x2  x2  x2  x2          x3 
e|---------------------------------------|
B|---1---3---3---3---1---1---3---5---5---|
G|---2---4---4---3---2---2---4---5---5---|
D|----------/2---1---0-------------------|
A|---------------------------------------|
E|---2---1---------------3---3---5---3---|

    x2  x2  x2  x2  x2           
e|-------------------------------|
B|---1---3---3---3---1---1---3---|
G|---2---4---4---3---2---2---4---|
D|----------/2---1---0-----------|
A|-------------------------------|
E|---2---1---------------3---3---|






Part 3:
                                             x3  
e|------------------------------------------------|
B|----1---3---3—-(1)----5---5---3---(1)---1---5---|
G|----2---2---1—-(1)----5---7---4---(2)---2---4---|
D|-------------—----------------------------------|
A|------------------------------------------------|
E|--1-----------------5-------------------3---4---|


Repeat part 1

Repeat part 2

Repeat part 3

Repeat first stanza of part 1


Outro: (x2)

   x2    x2    x2    x2    x2    x2           
e|-----|-----|-----|-----|-----|-----|-----|-----|-----|-----|
B|--5--|--5--|--1—-|--5--|--5--|--1--|--5--|--4—-|--10-|--9--|
G|--5--|--5--|--2—-|--4—-|--5--|--2--|--4—-|--4—-|--7--|--7--|
D|-----|-----|-----|-----|-----|-----|-----|-----|-----|-----|
A|-----|--5--|-----|--3--|-----|-----|--2--|--2--|-/7--|--7--|
E|--5--|-----|--3--|-----|--5--|--2--|-----|-----|-----|-----|



----------------------------------the-end-------------------------------------

Please, let us know what you think!
            
Submit corrections

comments powered by Disqus
↑ Back to top | Yoko Kanno Tabs for Wo Qui Non Coin. Lyrics for acoustic guitar and electric guitar. Tablatures and chords are parodies/interpretations of the original songs. You may use it for private study, scholarship, research or language learning purposes only