» » »

Waltz For Zizi Tabs (ver.1)

Artists:  A B C D E F G H I J K L M N O P Q R S T U V W X Y Z # 

Waltz For Zizi Tabs (ver.1)

Yoko Kanno
Rating:
5/5 (12 votes)

Hard to play? Try these video lessons and learn fast.
                the tablature that i've found for the cowboy bebop song "waltz for zizi" on the
internet isn't great; some of them aren't even in the right key.  while this isn't
perfect, i think it's the most complete tab you'll find online.  as posted on

key of e.  listen to the song for the timing.

walts for zizi tab, from cowboy bebop

e|-------0--2s4------2--0-----0------0--0--2--4------|
B|-0--0--0------2s4--2-----2--0------0--------3------|
G|-------1-----------2--------1--1---1--------4------|
D|-------2-----------------------2---2---------------|
A|-------2---------------------------2---------------|
E|---------------------------------------------------|


|-5--4--2--------5s1--4--2-----------0--------------|
|-------2--2--2-------3-----4--2--1--0--2--2s4------|
|-------2--2--2-------4--------2--2--1--------------|
|----------2--2----------------2--2--2--------------|
|------------------------------------2--------------|
|---------------------------------------------------|


|----0---------------0--2s4------2--0-----0---------|
|-2--0--2--2s4--2----0------2s4--2-----2--0---------|
|-2--1----------2----1-----------2--------1--1------|
|-2--2----------2----2-----------------------2------|
|----2---------------2------------------------------|
|---------------------------------------------------|


|-0--0--2--4--5--4--2--------5s1--4--2-----2--0-----|
|-0--------3--------2--2--2-------3-----4--2--------|
|-1--------4--------2--2--2-------4--------2--------|
|-2--------------------2--2-------------------------|
|-2-------------------------------------------------|
|---------------------------------------------------|


|----0--------0--2--4--4--4-----9--9--9--9--9--9----|
|-2--2--2--3--------3-----6-------------------------|
|----2-----2--------4-----6--------9--9--9--9--9----|
|----2-----0----------------------------------------|
|---------------------------------------------------|
|---------------------------------------------------|
                             here come the strings..

|-9--9--8--9--9--14--12--12--10--9------10--9--7----|
|-----------------------------------10--------------|
|-9--9--8--9--9--14--13--13--11--9------11--9--7----|
|-----------------------------------11--------------|
|---------------------------------------------------|
|---------------------------------------------------|


|-7--5--4--2--0-------------------------------------|
|---------------------------------------------------|
|-7--6--4--2--1-------------------------------------|
|---------------------------------------------------|
|---------------------------2-----------------------|
|------------------0--2--4-----0--0-----------------|
                             let ring..

|-7--7--7--7--7--7--7--6--7--7--7s9--7--5--4--7-----|
|---------------------------------------------------|
|-7--7--7--7--7--7--7--6--7--7--7s9--7--6--4--7-----|
|---------------------------------------------------|
|---------------------------------------------------|
|---------------------------------------------------|


|-7--5--2--0----9--9--9--9--9--9--9--8--9--9--14----|
|---------------------------------------------------|
|-7--6--2--2----9--9--9--9--9--9--9--8--9--9--14----|
|---------------------------------------------------|
|---------------------------------------------------|
|---------------------------------------------------|


|-12--12--10--9------10--9---7--5--4--7--2----------|
|----------------10---------------------------------|
|-13--13--11--9------11--9---7--6--4--7--2----------|
|----------------11---------------------------------|
|---------------------------------------------------|
|---------------------------------------------------|


|-7--7--7--7--7--7--7--6--7--7--11--9--7--9--4------|
|---------------------------------------------------|
|-7--7--7--7--7--7--7--6--7--7--10--9--7--9--4------|
|---------------------------------------------------|
|---------------------------------------------------|
|---------------------------------------------------|


|-7--5----------------------------------------------|
|---------------------------------------------------|
|-7--6----------------------------------------------|
|---------------------------------------------------|
|---------------------------------------------------|
|---------------------------------------------------|


|-------0--2s4------2--0-----0------0--0--2--4------|
|-0--0--0------2s4--2-----2--0------0--------3------|
|-------1-----------2--------1--1---1--------4------|
|-------2-----------------------2---2---------------|
|-------2---------------------------2---------------|
|---------------------------------------------------|


|-5--4--2--------5s1--4--2-----------0--------------|
|-------2--2--2-------3-----4--2--1--0--2--2s4------|
|-------2--2--2-------4--------2--2--1--------------|
|----------2--2----------------2--2--2--------------|
|------------------------------------2--------------|
|---------------------------------------------------|


|----0---------------0--2s4------2--0-----0---------|
|-2--0--2--2s4--2----0------2s4--2-----2--0---------|
|-2--1----------2----1-----------2--------1--1------|
|-2--2----------2----2-----------------------2------|
|----2---------------2------------------------------|
|---------------------------------------------------|


|-0--0--2--4--5--4--2--------5s1--4--2--9--7--12----|
|-0--------3--------2--2--2-------3-----8-----10----|
|-1--------4--------2--2--2-------4-----9-----9-----|
|-2--------------------2--2-------------------------|
|-2-------------------------------------------------|
|---------------------------------------------------|


|-12--14--12----------------------------------------|
|-10--12--12----------------------------------------|
|-9---11--9-----------------------------------------|
|---------------------------------------------------|
|---------------------------------------------------|
|---------------------------------------------------|
            
Hard to play? Try these video lessons and learn fast. | Correct




comments powered by Disqus
↑ Back to top | Tablatures and chords are parodies/interpretations of the original songs. You may use it for private study, scholarship, research or language learning purposes only