» » »

The Real Folk Blues Chords (ver.2)

Artists:  A B C D E F G H I J K L M N O P Q R S T U V W X Y Z # 

The Real Folk Blues Chords (ver.2)

Yoko Kanno
Rating:
5/5 (2 votes)

Hard to play? Try these video lessons and learn fast.
                The Real Folk Blues
Music by Yoko Kanno
Words by Yuho Iwasato


Capo 2nd Fret
Chords Relative to capo


Chords:

  Em7(9)  E#m7   G   C#m7b5 Cmaj7  A   D   Am7  Bm7  C#m7  C
|--2-------0-----3-----0------0----0---2----0----0----0----0-|
|--3-------0-----0-----0------0----2---3----1----0----0----1-|
|--0-------0-----0-----0------0----2---2----0----2----4----0-|
|--2-------0-----0-----2------2----2---0----2----0----2----2-|
|--2-------2-----2-----4------3----0--------0----2----4----3-|
|--0-------0-----3-------------------------------------------|



  B7sus4  B7  A7  Dm7  B/D#  G7  A/C#  G/B  Em  Em6  Em(11)
|--0------2---0----1----2----1----------3---0----0------0----|
|--0------4---2----1----0----0----2-----0---0----2------0----|
|--2------2---0----2----2----0----2-----0---0----0------2----|
|--4------4---2----0----1----0----2-----0---2----2------2----|
|--2------2---0--------------2----4-----2---2----2------2----|
|----------------------------3--------------0----0------0----|



Em7(9)

Em7   G   C#m7b5   Cmaj7  x2


Em7              G
Aish*teta to nageku niwa

   A                         Em7    D
Amarinimo toki wa sugitte shimatta

Em7                G
Mada kokoro no hokorobi wo

   A                    Em7
Iyasenu mama kaze ga fuiteru



Em7                 G
Hitotsu no me de asuomite

    A                       Em7     D
Hitotsu no me de kinou mitsumeteru

Em7               G
Kimi no ai no yurikagode

   A                      Em7
Mo ichido yasuraka ni nemuretara



Am7      Bm7       C#m7      C        B7sus4
   Kawaita hitomi de dare ka naite kure



B7          A7
   THE REAL FOLK BLUES

  B7sus4  B7  Em7               Dm7
Honto     no    kanashimi ga shiritai dake

        C#m7b5     B/D#
Doro no kawa ni tsukatta

Dm7   G7       A/C#      Cmaj7
   Jinsei mo waruku wa nai

        G/B   A7  B7     Em7
Ichido kiri de    owaru nara


G  C#m7b5  Cmaj7

Em7  G  C#m7b5  Cmaj7


 
Em7                   G
Kibou ni michita zetsuboto

    A                        Em7   D
Wanagashikakerareteru kono chansu

Em7                 G
Nani ga yoku te warui no ka

   A                     Em7
Koin no omoi to kuramitaita



Am7        Bm7      C#m7   C           B7sus4
   Dore dake ikire wa iyasereru no darou



B7          A7
   THE REAL FOLK BLUES

  B7sus4  B7  Em7             Dm7
Honto     no   yorokobi ga shiritai dake

       C#m7b5    B/D#   
Hikaru mono no subete ga

Em7
  ougen to wa kagiranai



         A7
THE REAL FOLK BLUES

  B7sus4  B7  Em7               Dm7
Honto     no    kanashimi ga shiritai dake

        C#m7b5     B/D#
Doro no kawa ni tsukatta

Dm7   G7       A/C#      Cmaj7
   Jinsei mo waruku wa nai

        G/B   A7  B7     Em7
Ichido kiri de    owaru nara


Em7  Em7  Em7

Em7  Em7  Em7  Em7



Em  Em6  Em7  Em(11)   repeat and fade out

End on a D
            
Hard to play? Try these video lessons and learn fast. | Correct




comments powered by Disqus
↑ Back to top | Tablatures and chords are parodies/interpretations of the original songs. You may use it for private study, scholarship, research or language learning purposes only