» » »

Yoko Kanno, Elm Tabs (ver.2)

Artists:  A B C D E F G H I J K L M N O P Q R S T U V W X Y Z # 

Elm Tabs (ver.2)

Yoko Kanno Tabs
Rating:
0/5 (0 votes)
Hard to play? Try these video lessons and learn fast.
                This is ELM, in its proper tuning, which is open Dsus2 (lower strings 1, 2, 5, and 
6 by a whole step.)  Sorry, but so far all I have is the first A section, but I 
can assure it's at least 99% accurate!

D  :------0-------0-----0---------0-|------0-------0-----0-----------|
A  :--------------------------------|--------------------------------|
G  :----0-------0-----0---------0---|----0-------0-----0-------------|
D  :--0-------0-----0-----3-2-3-----|--0-------0-----0-----3-2-------|
G  :0-------------------------------|0---------------0---------------|
D  :--------------------------------|--------------------------------|

D  :------0-------0-------0---------|------0---------0-----------------|
A  :----------------------------0---|---------3-/5-----1---------------|
G  :----0-------0-------0-----0---0-|----0-----------------0---0-------|
D  :1-3-------3-----1-3-----3-------|--0---------------------3-0-------|
G  :--------------------------------|0-------------------------0-------|
D  :--------------------------------|----------------------------------|

D  :0---------3-----0---2---|------0---------5-------|
A  :------5-----------------|--------------5-------0-|
G  :----0-----------------0-|----0-------0-------0---|
D  :--3---------------3-----|--0-------0-------------|
G  :3-----------------------|0-----------------------|
D  :----------------3-------|------------------------|

D  :-------------------------|------0-------0-------0-------0-|
A  :-------------0-------0---|--------------------------------|
G  :-------5-3-2---0---------|----0-------0-------0-------0---|
D  :-----------------3-------|--0-------0-------0-------0-----|
G  :/3---------------5-------|0---------------0---------------|
D  :-----------------3-------|--------------------------------|

D  :------0-------0-------0---------|--------0-------0-------0---0-2-|
A  :----------------------------0---|------1-------3-------3---------|
G  :----0-------0-------0-----0---0-|--0-2-----0-2-----0-2-----------|
D  :1-3-------3-----1-3-----3-------|--------------------------------|
G  :--------------------------------|0-----------------------2-------|
D  :--------------------------------|--------------------------------|

D  :/3---------3-/5---5-------|0-----0-------------------|
A  :---------5--------7-------|------------------------0-|
G  :-------5----------7-------|----0-----------------0---|
D  :-----3------------5-------|--0------3-/5-3-0-0-3-----|
G  :---3--------------5-------|0-----------------0-------|
D  :--------------------------|--------------------------|

D  :------------0----------------|-----------0-----------------|
A  :--------------------0-(1)(0)-|-----------------------------|
G  :------5-3-2---0--------------|------(12)-----0-------------|
D  :----------------3------------|--(0)------------0-0---------|
G  :3----------------------------|0--------------------0-------|
D  :----------------3------------|-----------------------------|

D  :----------------3-5-2-0-|----2-3-2-0-------------------|
A  :8-----------8-----------|8-------------8---------------|
G  :5-------5---5-----------|5-------------5-----------5---|
D  :5---5-------5-----------|5-------------5-----5---5-----|
G  :5-----5-----5-----------|5-------------5-------5-------|
D  :------------------------|------------------------------|

D  :------0-------0---------|------0-------0-----|
A  :3-------3---------------|3-------3-----------|
G  :----0-------0-------0---|----0-------0-------|
D  :--3-------3-------3---3-|--3-------3---------|
G  :0-------------0-0-------|0-------------0-0---|
D  :------------------------|--------------------|

D  :----------------3-5-2-0-|----2-3-2-0---------------|
A  :8-----------8-----------|8-------------8-----------|
G  :5-------5---5-----------|5-------------5-----------|
D  :5---5-------5-----------|5-------------5-------*---|
G  :5-----5-----5-----------|5-------------5-----------|
D  :------------------------|--------------------------|

D  :0-------------------------------|------0-------0-----------------|
A  :--3-----3-----------------------|--------------------------------|
G  :----3-0-----3---3-5-----0-------|----0-------0-------------------|
D  :------------3-------5-------3---|--0-------0---------------------|
G  :3-----------3-----------5-------|0-------------------------------|
D  :------------3-------------------|--------------------------------|
            

comments powered by Disqus
↑ Back to top | Yoko Kanno Tabs for Elm. Lyrics for acoustic guitar and electric guitar. Tablatures and chords are parodies/interpretations of the original songs. You may use it for private study, scholarship, research or language learning purposes only