>
 >
Arpeggios From Hell 1

Arpeggios From Hell 1 Guitar Tabs

Yngwie Malmsteen - Arpeggios From Hell 1 chords, tabs, tablatures, lyrics

Guitar lessons | Add/correct | Request | Top 50 tabs Artists:  A B C D E F G H I J K L M N O P Q R S T U V W X Y Z 0-9

Arpeggios From Hell 1 Guitar Tabs – Yngwie Malmsteen

CD, Sheet music, Poster

Do you like Arpeggios From Hell 1? Share with your friends now
Bass TabsBass Tabs v2TabsTabs v2Tabs v3

 Intro     Main Riff
|---------|-----------------------------------------------------------|
|---------|--------------------------------------------------12----12-|
|---------|O-----------------------------------9---9-12-9-12----12----|
|---------|O----------------------------9----9---9--------------------|
|---------|-----------------7---10-7-10---10--------------------------|
|-12/20~\-|--0--3-0-3-7-3-7---7---------------------------------------|

|-12----12-15-14-12-15-14-12-19-15------------------------------------|
|----12----------------------------17----17---------------------------|
|-------------------------------------16----16----16------------------|
|----------------------------------------------17----17-14-17-14----14|
|----------------------------------------------------------------14---|
|---------------------------------------------------------------------|

|--------------------------------------------------------------------|
|-----------------------------------------------------------17----17-|
|-----------------------------------------14----14-17-14-17----17----|
|--------------------------------------------14----------------------|
|-14----14--------------15----15-19-15-19----------------------------|
|----15----15-12~--17------17----------------------------------------|
                                                                     ~
|-17~-17-14------------------------------------------------------------|
|-----------16----16---------------------------------------------------|
|--------------17----17-14-17-14----14---------------------------------|
|--------------------------------16----16-13-16-13----13---------------|
|--------------------------------------------------15----15-12-15-12---|
|--------------------------------------------------------------------14|

|-15-12---------------------------------------------------------------|
|-------14----14------------------------------------------------------|
|----------15----15-12-15-12----12------------------------------------|
|----------------------------14----14-11-14-11----11------------------|
|----------------------------------------------13----13-10-13-10------|
|----------------------------------------------------------------12~--|
ah...
|-15p12----14p11----15p12----14p11----15p12----14p11----15p12----15~--|
|-------12-------12-------12-------12-------12-------12-------12------|
|---------------------------------------------------------------------|
|---------------------------------------------------------------------|
|---------------------------------------------------------------------|
|---------------------------------------------------------------------|

|-15-14-12-11----------------------------------------------------|
|-------------13-12-10-------------------------------------------|
|----------------------12-11-9-8--------------------------------O|
|--------------------------------10-9-7-------------------------O|
|---------------------------------------10-9-7-6-----------------|
|------------------------------------------------8-7-5-3-2-0-0---|
 Solo
|----------------------------------------------------------------------|
|-17~--17--19--20--19--17--19--19-19-19-19-19-19-19-19-19-19-19-19--19~|
|----------------------------------------------------------------------|
|----------------------------------------------------------------------|
|----------------------------------------------------------------------|
|----------------------------------------------------------------------|




|-21-18----19-15----15-12----14-10----12-14-15-14-14-12----12----------|
|-------20-------17-------14-------12-------------------15----15-14-12-|
|----------------------------------------------------------------------|
|----------------------------------------------------------------------|
|----------------------------------------------------------------------|
|----------------------------------------------------------------------|

|-------12----------------12-15-14-12-15-14-12----12-------------12-15-|
|-14-15----15-14-12-14-15----------------------15----15-14-12-15-------|
|----------------------------------------------------------------------|
|----------------------------------------------------------------------|
|----------------------------------------------------------------------|
|----------------------------------------------------------------------|

|-12-14-12-------12-15-12-15-12-14-15-21^--19~--21-18-19-18-19-18-18-21|
|----------14-15-------------------------------------------------------|
|----------------------------------------------------------------------|
|----------------------------------------------------------------------|
|----------------------------------------------------------------------|
|----------------------------------------------------------------------|

|-18-19-18-19-18-18-21-18-19-18-19-18-18~~~~-0-19-21-|
|----------------------------------------------------|
|----------------------------------------------------|
|----------------------------------------------------|
|----------------------------------------------------|
|----------------------------------------------------|
 Amazing Isn't it
|-21^--21~--21-18----19-15----15-12----15-14-12------|
|-----------------20-------17-------14----------15^--|
|----------------------------------------------------|
|----------------------------------------------------|
|----------------------------------------------------|
|----------------------------------------------------|
 Its like a Rollercoaster but u do the work
|-----------------------------12-14-12--------------------------------|
|---------------------12-14-15--------15-14-12------------------------|
|-------------11-12-14------------------------14-12-11----------------|
|-----11-12-14----------------------------------------14-12-----------|
|13-14-----------------------------------------------------14-13--12~-|
|---------------------------------------------------------------------|
 Up Again                                            Vib.
|----------------17~---17-15-13----15-13-12----15---13^v---12-----13~-|
|--------------13---------------17----------15----------------12~~----|
|------------14-------------------------------------------------------|
|----------14---------------------------------------------------------|
|-12~-12-15-----------------------------------------------------------|
|---------------------------------------------------------------------|

|-12--13--10--13--8--13-----13---13-----7-10-7-----8-5-------|
|-----------------------10~----9----10---------9-------7-----|
|------------------------------------------------7-------9~~-|
|------------------------------------------------------------|
|------------------------------------------------------------|
|------------------------------------------------------------|
 Not Realy Sure!!!                                                  A.H.
|-17-15-13-12-15-13-12--------12-13-12-10-8-7-10-8-7-5-8-7-5-4-5-------|
|---------------------15-13-15----------------------------------6-5-3--|
|--------------------------------------------------------------------5~|
|----------------------------------------------------------------------|
|----------------------------------------------------------------------|
|----------------------------------------------------------------------|

 Now You Rise Into Hell
|-----------------------------------------------------10--10-12v-v-|
|-5-5-5-5-5-5--5~~~---------------------------10-12-13--13---------|
|-------------------------------8-9-11-9-11-12---------------------|
|-------------------6-7-9-7-9-10-----------------------------------|
|------------------------------------------------------------------|
|------------------------------------------------------------------|
 Heres The Fun Part
|-17-14------------14-17-14---------14-15-12---------12-15-12--------|
|------16--------16--------16-----16--------14-----14--------14------|
|--------17-14-17------------17-14------------15-12------------15-12-|
|--------------------------------------------------------------------|
|--------------------------------------------------------------------|
|--------------------------------------------------------------------|
                                             DOWN!!!                  ~
|---12-15-12-12-9--------9-12-9--------9-12~--------------------------|
|-14-------------11----11------11----11-----13-12-10-9~---------------|
|------------------12-9----------12-9-----------------10-9-7----------|
|-----------------------------------------------------------10-9-7----|
|-----------------------------------------------------------------8-7-5
|---------------------------------------------------------------------|
 Main Riff                    back where you started
|-----------------------------------------------------------|
|--------------------------------------------------12----12-|
|O-----------------------------------9---9-12-9-12----12----|
|O----------------------------9----9---9--------------------|
|-----------------7---10-7-10---10--------------------------|
|--0--3-0-3-7-3-7---7---------------------------------------|

|-12----12-15-14-12-15-14-12-19-15------------------------------------|
|----12----------------------------17----17---------------------------|
|-------------------------------------16----16----16------------------|
|----------------------------------------------17----17-14-17-14----14|
|----------------------------------------------------------------14---|
|---------------------------------------------------------------------|

|--------------------------------------------------------------------|
|-----------------------------------------------------------17----17-|
|-----------------------------------------14----14-17-14-17----17----|
|--------------------------------------------14----------------------|
|-14----14--------------15----15-19-15-19----------------------------|
|----15----15-12~--17------17----------------------------------------|
                                                                     ~
|-17~-17-14------------------------------------------------------------|
|-----------16----16---------------------------------------------------|
|--------------17----17-14-17-14----14---------------------------------|
|--------------------------------16----16-13-16-13----13---------------|
|--------------------------------------------------15----15-12-15-12---|
|--------------------------------------------------------------------14|

|-15-12---------------------------------------------------------------|
|-------14----14------------------------------------------------------|
|----------15----15-12-15-12----12------------------------------------|
|----------------------------14----14-11-14-11----11------------------|
|----------------------------------------------13----13-10-13-10------|
|----------------------------------------------------------------12~--|
ah... (agian)
|-15p12----14p11----15p12----14p11----15p12----14p11----15p12----15~--|
|-------12-------12-------12-------12-------12-------12-------12------|
|---------------------------------------------------------------------|
|---------------------------------------------------------------------|
|---------------------------------------------------------------------|
|---------------------------------------------------------------------|

|-15-14-12-11----------------------------------------------------|
|-------------13-12-10-------------------------------------------|
|----------------------12-11-9-8--------------------------------O|
|--------------------------------10-9-7-------------------------O|
|---------------------------------------10-9-7-6-----------------|
|------------------------------------------------8-7-5-3-2-0-0---|
 Outro
|--------------|
|--------------|
|----------THE-|
|-2--------END-|
|-2--7~\x------|
|-0------------|





Comments


Popular Yngwie Malmsteen tabs & chords
Black Star Bass Tabs
Queen In Love Bass Tabs
Asylum Part 1 Tabs
Echo Etude Tabs
Flamenco Diablo Intro Tabs
Heaven Tonight Tabs
Krakatau Tabs
Save Our Love Tabs
Save Our Love 1 Tabs
Vengeance Intro Tabs


Song lyrics



↑ Back to top | Tablatures and chords are parodies/interpretations of the original songs. You may use it for private study, scholarship, research or language learning purposes only
© 2014 AZChords.com Contact us | Privacy policy | DMCA | Add/correct tabs | Request tabs | Top 50 tabs