» » »

Yngwie Malmsteen, Arpeggios From Hell Bass tabs (ver.2)

Artists:  A B C D E F G H I J K L M N O P Q R S T U V W X Y Z # 

Arpeggios From Hell Bass tabs (ver.2)

Yngwie Malmsteen Tabs
 Rating:
4/5 (4 votes)
Arpeggios From Hell lessons Tabs too difficult? Try these video lessons and learn fast
1
                
ARPEGGIOS FROM HELL (Bassline)
As recorded by Yngwie J. Malmsteen

	

Music by Yngwie J. Malmsteen

Gtr I (Eb Ab Db Gb Bb Eb) - 'Untitled'
Gtr II (Eb Ab Db Gb Bb Eb) - 'Untitled'

  Faster Q=176
                      $
                          E5
 4/4
  Gtr I
                          |---6---| |---6---|
  Q  E.   S    H          Q E E E E Q E E E E
|---------------------||----------------------|
|---------------------||o---------------------|
|---------------------||----------------------|
|---------------------||----------------------|
|---------------------||o-7-7-7-7-7-7-7-7-7-7-|
|-------(12)s(20)\----||----------------------|
|
| Gtr II
| W                       W
|---------------------||----------------------|
|---------------------||o---------------------|
|---------------------||--4-------------------|
|---------------------||--2-------------------|
|---------------------||o---------------------|
|---------------------||--0-------------------|
                          W


   |---6----| |---6---|    |---6----| |---6---|
   Q  E E E E Q E E E E    Q  E E E E Q E E E E
|-----------------------|------------------------|
|-----------------------|------------------------|
|-----------------------|------------------------|
|-----------------------|------------------------|
|--7--7-7-7-7-7-7-7-7-7-|--7--7-7-7-7-7-7-7-7-7--|
|-----------------------|------------------------|
|
| +W                      +W
|-----------------------|------------------------|
|-----------------------|------------------------|
|-(4)-------------------|-(4)--------------------|
|-(2)-------------------|-(2)--------------------|
|-----------------------|------------------------|
|-(0)-------------------|-(0)--------------------|
  +W                      +W


   |---6----| |---6---|    |---6----| |---6---|
   Q  E E E E Q E E E E    Q  E E E E Q E E E E
|-----------------------|-----------------------|
|-----------------------|-----------------------|
|-----------------------|-----------------------|
|-----------------------|-----------------------|
|--7--7-7-7-7-7-7-7-7-7-|--7--7-7-7-7-7-7-7-7-7-|
|-----------------------|-----------------------|
|
| +W                      +W
|-----------------------|-----------------------|
|-----------------------|-----------------------|
|-(4)-------------------|-(4)-------------------|
|-(2)-------------------|-(2)-------------------|
|-----------------------|-----------------------|
|-(0)-------------------|-(0)-------------------|
  +W                      +W


  A5
  |---6---| |---6---|    |---6----| |---6---|
  Q E E E E Q E E E E    Q  E E E E Q E E E E
|---------------------|------------------------||
|---------------------|------------------------||
|---------------------|------------------------||
|---------------------|------------------------||
|---------------------|------------------------||
|-5-5-5-5-5-5-5-5-5-5-|--5--5-5-5-5-5-5-5-5-5--||
|
| W                     +W
|---------------------|------------------------||
|---------------------|------------------------||
|-9-------------------|-(9)--------------------||
|-7-------------------|-(7)--------------------||
|---------------------|------------------------||
|-5-------------------|-(5)--------------------||
  W                     +W


  G#5
  |---6---| |---6---|    |---6----| |---6---|
  Q E E E E Q E E E E    Q  E E E E Q E E E E
|---------------------|-----------------------|
|---------------------|-----------------------|
|---------------------|-----------------------|
|---------------------|-----------------------|
|---------------------|-----------------------|
|-4-4-4-4-4-4-4-4-4-4-|--4--4-4-4-4-4-4-4-4-4-|
|
| W                     +W
|---------------------|-----------------------|
|---------------------|-----------------------|
|-8-------------------|-(8)-------------------|
|-6-------------------|-(6)-------------------|
|---------------------|-----------------------|
|-4-------------------|-(4)-------------------|
  W                     +W


  F#5
  |---6---| |---6---|    |---6----| |---6---|
  Q E E E E Q E E E E    Q  E E E E Q E E E E
|---------------------|------------------------|
|---------------------|------------------------|
|---------------------|------------------------|
|---------------------|------------------------|
|---------------------|------------------------|
|-2-2-2-2-2-2-2-2-2-2-|--2--2-2-2-2-2-2-2-2-2--|
|
| W                     +W
|---------------------|------------------------|
|---------------------|------------------------|
|-6-------------------|-(6)--------------------|
|-4-------------------|-(4)--------------------|
|---------------------|------------------------|
|-2-------------------|-(2)--------------------|
  W                     +W


                                              To Coda
  E  Eb E  Eb   E  Eb E  Eb   C   B  A  G    F# E
  Q  Q  Q  Q    Q  Q  Q  Q     Q  Q  Q  Q    Q  Q  H
|-------------|-------------|--------------|-------------||
|-------------|-------------|--------------|------------o||
|-------------|-------------|--------------|-------------||
|-------------|-------------|--------------|-------------||
|-7--6--7--6--|-7--6--7--6--|--------------|------------o||
|-------------|-------------|--8--7--5--3--|-2--0--0-----||
|
| Q  Q  Q  Q    Q  Q  Q  Q     Q  Q  Q  Q    Q  Q  H
|-------------|-------------|--------------|-------------||
|-------------|-------------|--------------|------------o||
|-9--8--9--8--|-9--8--9--8--|--------------|-------------||
|-------------|-------------|-10--9--7--5--|-4--2--2-----||
|-7--6--7--6--|-7--6--7--6--|--------------|------------o||
|-------------|-------------|--8--7--5--3--|-2--0--0-----||


  E5
  |---6---| |---6---|    |---6----| |---6---|
  Q E E E E Q E E E E    Q  E E E E Q E E E E
|---------------------|-----------------------|
|---------------------|-----------------------|
|---------------------|-----------------------|
|---------------------|-----------------------|
|-7-7-7-7-7-7-7-7-7-7-|--7--7-7-7-7-7-7-7-7-7-|
|---------------------|-----------------------|
|
| W                     +W
|---------------------|-----------------------|
|---------------------|-----------------------|
|-4-------------------|-(4)-------------------|
|-2-------------------|-(2)-------------------|
|---------------------|-----------------------|
|-0-------------------|-(0)-------------------|
  W                     +W


  F#5
  |---6---| |---6---|    |---6----| |---6---|
  Q E E E E Q E E E E    Q  E E E E Q E E E E
|---------------------|------------------------|
|---------------------|------------------------|
|---------------------|------------------------|
|---------------------|------------------------|
|---------------------|------------------------|
|-2-2-2-2-2-2-2-2-2-2-|--2--2-2-2-2-2-2-2-2-2--|
|
| W                     +W
|---------------------|------------------------|
|-7-------------------|-(7)--------------------|
|-6-------------------|-(6)--------------------|
|-4-------------------|-(4)--------------------|
|---------------------|------------------------|
|-2-------------------|-(2)--------------------|
  W                     +W


   |---6----| |---6---|    |---6----| |---6---|
   Q  E E E E Q E E E E    Q  E E E E Q E E E E
|-----------------------|-----------------------|
|-----------------------|-----------------------|
|-----------------------|-----------------------|
|-----------------------|-----------------------|
|-----------------------|-----------------------|
|--2--2-2-2-2-2-2-2-2-2-|--2--2-2-2-2-2-2-2-2-2-|
|
| +W                      +W
|-----------------------|-----------------------|
|-(7)-------------------|-(7)-------------------|
|-(6)-------------------|-(6)-------------------|
|-(4)-------------------|-(4)-------------------|
|-----------------------|-----------------------|
|-(2)-------------------|-(2)-------------------|
  +W                      +W


   |---6----| |---6---|    |---6----| |---6---|
   Q  E E E E Q E E E E    Q  E E E E Q E E E E
|-----------------------|------------------------|
|-----------------------|------------------------|
|-----------------------|------------------------|
|-----------------------|------------------------|
|-----------------------|------------------------|
|--2--2-2-2-2-2-2-2-2-2-|--2--2-2-2-2-2-2-2-2-2--|
|
| +W                      +W
|-----------------------|------------------------|
|-(7)-------------------|-(7)--------------------|
|-(6)-------------------|-(6)--------------------|
|-(4)-------------------|-(4)--------------------|
|-----------------------|------------------------|
|-(2)-------------------|-(2)--------------------|
  +W                      +W


   |---6----| |---6---|    |---6----| |---6---|
   Q  E E E E Q E E E E    Q  E E E E Q E E E E
|-----------------------|-----------------------|
|-----------------------|-----------------------|
|-----------------------|-----------------------|
|-----------------------|-----------------------|
|-----------------------|-----------------------|
|--2--2-2-2-2-2-2-2-2-2-|--2--2-2-2-2-2-2-2-2-2-|
|
| +W                      +W
|-----------------------|-----------------------|
|-(7)-------------------|-(7)-------------------|
|-(6)-------------------|-(6)-------------------|
|-(4)-------------------|-(4)-------------------|
|-----------------------|-----------------------|
|-(2)-------------------|-(2)-------------------|
  +W                      +W


   |---6----| |---6---|    |---6----| |---6---|
   Q  E E E E Q E E E E    Q  E E E E Q E E E E
|-----------------------|------------------------|
|-----------------------|------------------------|
|-----------------------|------------------------|
|-----------------------|------------------------|
|-----------------------|------------------------|
|--2--2-2-2-2-2-2-2-2-2-|--2--2-2-2-2-2-2-2-2-2--|
|
| +W                      +W
|-----------------------|------------------------|
|-(7)-------------------|-(7)--------------------|
|-(6)-------------------|-(6)--------------------|
|-(4)-------------------|-(4)--------------------|
|-----------------------|------------------------|
|-(2)-------------------|-(2)--------------------|
  +W                      +W


                          A5
   |---6----| |---6---|    |---6---| |---6---|
   Q  E E E E Q E E E E    Q E E E E Q E E E E
|-----------------------|----------------------|
|-----------------------|----------------------|
|-----------------------|----------------------|
|-----------------------|----------------------|
|-----------------------|----------------------|
|--2--2-2-2-2-2-2-2-2-2-|--5-5-5-5-5-5-5-5-5-5-|
|
| +W                       W
|-----------------------|----------------------|
|-(7)-------------------|-10-------------------|
|-(6)-------------------|--9-------------------|
|-(4)-------------------|--7-------------------|
|-----------------------|----------------------|
|-(2)-------------------|--5-------------------|
  +W                       W


    |---6----| |---6---|     |---6----| |---6---|
    Q  E E E E Q E E E E     Q  E E E E Q E E E E
|------------------------|-------------------------|
|------------------------|-------------------------|
|------------------------|-------------------------|
|------------------------|-------------------------|
|------------------------|-------------------------|
|---5--5-5-5-5-5-5-5-5-5-|---5--5-5-5-5-5-5-5-5-5--|
|
|  +W                       +W
|------------------------|-------------------------|
|-(10)-------------------|-(10)--------------------|
|--(9)-------------------|--(9)--------------------|
|--(7)-------------------|--(7)--------------------|
|------------------------|-------------------------|
|--(5)-------------------|--(5)--------------------|
   +W                       +W


    |---6----| |---6---|     |---6----| |---6---|
    Q  E E E E Q E E E E     Q  E E E E Q E E E E
|------------------------|------------------------|
|------------------------|------------------------|
|------------------------|------------------------|
|------------------------|------------------------|
|------------------------|------------------------|
|---5--5-5-5-5-5-5-5-5-5-|---5--5-5-5-5-5-5-5-5-5-|
|
|  +W                       +W
|------------------------|------------------------|
|-(10)-------------------|-(10)-------------------|
|--(9)-------------------|--(9)-------------------|
|--(7)-------------------|--(7)-------------------|
|------------------------|------------------------|
|--(5)-------------------|--(5)-------------------|
   +W                       +W


    |---6----| |---6---|     |---6----| |---6---|
    Q  E E E E Q E E E E     Q  E E E E Q E E E E
|------------------------|-------------------------|
|------------------------|-------------------------|
|------------------------|-------------------------|
|------------------------|-------------------------|
|------------------------|-------------------------|
|---5--5-5-5-5-5-5-5-5-5-|---5--5-5-5-5-5-5-5-5-5--|
|
|  +W                       +W
|------------------------|-------------------------|
|-(10)-------------------|-(10)--------------------|
|--(9)-------------------|--(9)--------------------|
|--(7)-------------------|--(7)--------------------|
|------------------------|-------------------------|
|--(5)-------------------|--(5)--------------------|
   +W                       +W


    |---6----| |---6---|     |---6----| |---6---|
    Q  E E E E Q E E E E     Q  E E E E Q E E E E
|------------------------|------------------------||
|------------------------|------------------------||
|------------------------|------------------------||
|------------------------|------------------------||
|------------------------|------------------------||
|---5--5-5-5-5-5-5-5-5-5-|---5--5-5-5-5-5-5-5-5-5-||
|
|  +W                       +W
|------------------------|------------------------||
|-(10)-------------------|-(10)-------------------||
|--(9)-------------------|--(9)-------------------||
|--(7)-------------------|--(7)-------------------||
|------------------------|------------------------||
|--(5)-------------------|--(5)-------------------||
   +W                       +W


  B5                     Bb5
   |---6---| |---6---|    |---6---| |---6---|
   Q E E E E Q E E E E    Q E E E E Q E E E E
|----------------------|-----------------------|
|----------------------|-----------------------|
|----------------------|-----------------------|
|----------------------|-----------------------|
|----------------------|-----------------------|
|--7-7-7-7-7-7-7-7-7-7-|--6-6-6-6-6-6-6-6-6-6--|
|
|  W                      W
|----------------------|-----------------------|
|-12-------------------|-11--------------------|
|-11-------------------|-10--------------------|
|--9-------------------|--8--------------------|
|----------------------|-----------------------|
|--7-------------------|--6--------------------|
   W                      W


                              D.S. al Coda  &
  G5                    E5                     E5
  |---6---| |---6---|   |---6---| |---6---|
  Q E E E E Q E E E E   Q E E E E Q E E E E    Q  Q  H
|---------------------|---------------------||------------*|
|---------------------|---------------------||------------*|
|---------------------|---------------------||------------*|
|---------------------|---------------------||------------*|
|---------------------|---------------------||------------*|
|-3-3-3-3-3-3-3-3-3-3-|-0-0-0-0-0-0-0-0-0-0-||-0----------*|
|
| W                     W                      Q  Q  H
|---------------------|---------------------||-7----------*|
|-8-------------------|-5-------------------||------------*|
|-7-------------------|-4-------------------||-4----------*|
|-5-------------------|-2-------------------||-2----------*|
|---------------------|---------------------||------------*|
|-3-------------------|-0-------------------||-0----------*|
  W                     W                      Q  Q  H



Duration Legend
---------------
W - whole; H - half; Q - quarter; E - 8th; S - 16th; T - 32nd; X - 64th; a - acciaccatura
+ - note tied to previous; . - note dotted; .. - note double dotted
Uncapitalized letters represent notes that are staccato (1/2 duration)
Irregular groupings are notated above the duration line
Duration letters will always appear directly above the note/fret number it represents the
duration for.  Duration letters with no fret number below them represent rests.  Multi-
bar rests are notated in the form Wxn, where n is the number of bars to rest for.  Low
melody durations appear below the staff

Tablature Legend
----------------
 h   - hammer-on
 p   - pull-off
 b   - bend
 pb  - pre-bend
 r   - bend release (if no number after the r, then release immediately)
 /\  - slide into or out of (from/to "nowhere")
 s   - legato slide
 S   - shift slide
 - natural harmonic
[n]  - artificial harmonic
n(n) - tapped harmonic
 ~   - vibrato
 tr  - trill
 T   - tap
 TP  - trem. picking
 PM  - palm muting
\n/  - tremolo bar dip; n = amount to dip
 \n  - tremolo bar down
 n/  - tremolo bar up
/n\  - tremolo bar inverted dip
 =   - hold bend; also acts as connecting device for hammers/pulls
 <> - volume swell (louder/softer)
 x   - on rhythm slash represents muted slash
 o   - on rhythm slash represents single note slash

Misc Legend
-----------
 |  - bar
||  - double bar
||o - repeat start
o|| - repeat end
*|  - double bar (ending)
 :  - bar (freetime)
 $  - Segno
 &  - Coda
Tempo markers -  = BPM(8/16=s8/s16), where s8 = swing 8ths, s16 = swing 16ths
            
Submit corrections

comments powered by Disqus
↑ Back to top | Yngwie Malmsteen Bass for Arpeggios From Hell. Lyrics for acoustic guitar and electric guitar. 1 Tablatures and chords are parodies/interpretations of the original songs. You may use it for private study, scholarship, research or language learning purposes only