>
 >
Arpeggios From Hell

Arpeggios From Hell Bass Tabs

Yngwie Malmsteen - Arpeggios From Hell chords, tabs, tablatures, lyrics

Guitar lessons | Add/correct | Request | Top 50 tabs Artists:  A B C D E F G H I J K L M N O P Q R S T U V W X Y Z 0-9

Arpeggios From Hell Bass Tabs – Yngwie Malmsteen

CD, Sheet music, Poster

Do you like Arpeggios From Hell? Share with your friends now
Bass TabsBass Tabs v2TabsTabs v2Tabs v3


                                                                
Tuning:1/2 step down

D# G# C# F#



      H.              H.                Q    E  E  E  E     Q    E  E  E  E   
F#||---------------|---------------||--------------------|-------------------|
C#||---------------|---------------||*-------------------|-------------------|
G#||---------------|---------------||*-------------------|-------------------|
D#||---------------|---------------||---0----0--0--0--0--|--0----8--0--0--0--|


  Q    E  E  E  E     Q    E  E  E  E     Q    E  E  E  E     Q    E  E  E  E   
-------------------|-------------------|-------------------|-------------------|
-------------------|-------------------|-------------------|-------------------|
-------------------|-------------------|-------------------|--0----0--0--0--0--|
--0----0--0--0--0--|--0----0--0--0--0--|--0----0--0--0--0--|-------------------|


  Q    E  E  E  E     E.  E.  E.  E.     E.  E.  E.  E.     E.  E.  E.  E.   
-------------------|------------------|------------------|------------------|
-------------------|------------------|----------2---2---|------------------|
--0----0--0--0--0--|--1---1---1---1---|--4---4-----------|--2---2---2---2---|
-------------------|------------------|------------------|------------------|


  E.  E.  E.  E.     E.  E.  E.  E.     E.  E.  E.  E.     Q.     Q.      
------------------|------------------|------------------|----------------|
--1---1---4---4---|----------2-------|----------2-------|----------------|
------------------|------2-------2---|------2-------2---|----------------|
------------------|--0---------------|--0---------------|--0------0------|


  Q.     Q.          Q.     Q.        Q.     Q.        E  S S S S E  S S S S  
-----------------||----------------|----------------|------------------------|
----------------*||--2-------------|----------------|------------------------|
----------------*||---------2------|---------2------|------------------------|
--0------0-------||----------------|--0-------------|--2--2-2-2-2-2--2-2-2-2-|


  E  S S S S E  S S S S    E  S S S S E  S S S S    E  S S S S E  S S S S  
------------------------|------------------------|------------------------|
------------------------|------------------------|------------------------|
------------------------|------------------------|------------------------|
--2--2-2-2-2-2--2-2-2-2-|--2--2-2-2-2-2--2-2-2-2-|--2--2-2-2-2-2--2-2-2-2-|


  E  S S S S E  S S S S    E  S S S S E  S S S S    E  S S S S E  S S S S  
------------------------|------------------------|------------------------|
------------------------|------------------------|------------------------|
------------------------|------------------------|------------------------|
--2--2-2-2-2-2--2-2-2-2-|--2--2-2-2-2-2--2-2-2-2-|--2--2-2-2-2-2--2-2-2-2-|


   S S S S S S S S S S S S    E  S S S S E  S S S S    E  S S S S E  S S S S  
---------------------------|------------------------|------------------------|
---------------------------|------------------------|------------------------|
--10-9-6-7-6---6-----------|------------------------|------------------------|
-------------8---8-7-8-3-2-|--2--2-2-2-2-2--2-2-2-2-|--2--2-2-2-2-2--2-2-2-2-|


  E  S S S S E  S S S S     S S S S S S S S S S S S    E  S S S S E  S S S S  
------------------------|---------------------------|------------------------|
------------------------|---------------------------|------------------------|
------------------------|--10-9-6-7-6---6-----------|------------------------|
--2--2-2-2-2-2--2-2-2-2-|-------------8---8-7-8-3-2-|--2--2-2-2-2-2--2-2-2-2-|


  E  S S S S E  S S S S    E  S S S S E  S S S S    E  S S S S E  S S S S  
------------------------|------------------------|------------------------|
------------------------|------------------------|------------------------|
------------------------|------------------------|------------------------|
--2--2-2-2-2-2--2-2-2-2-|--2--2-2-2-2-2--2-2-2-2-|--2--2-2-2-2-2--2-2-2-2-|


  E  S S S S E  S S S S    E  S S S S E  S S S S    E  S S S S E  S S S S  
------------------------|------------------------|------------------------|
------------------------|------------------------|------------------------|
--0--0-0-0-0-0--0-0-0-0-|--0--0-0-0-0-0--0-0-0-0-|--0--0-0-0-0-0--0-0-0-0-|
------------------------|------------------------|------------------------|


  E  S S S S E  S S S S    E  S S S S E  S S S S    E  S S S S E  S S S S  
------------------------|------------------------|------------------------|
------------------------|------------------------|------------------------|
--0--0-0-0-0-0--0-0-0-0-|------------------------|------------------------|
------------------------|--4--4-4-4-4-4--4-4-4-4-|--4--4-4-4-4-4--4-4-4-4-|


  E.  E.  E.   E.     E.  E.  E.  E.     E  S S S S E  S S S S  
-------------------|------------------|------------------------|
----------7---10---|----------6---9---|------------------------|
--6---9------------|--5---8-----------|--0--0-0-0-0-0--0-0-0-0-|
-------------------|------------------|------------------------|


  E  S S S S E  S S S S    E  S S S S E  S S S S    E  S S S S E  S S S S  
------------------------|------------------------|------------------------|
------------------------|------------------------|------------------------|
--0--0-0-0-0-0--0-0-0-0-|--0--0-0-0-0-0--0-0-0-0-|--0--0-0-0-0-0--0-0-0-0-|
------------------------|------------------------|------------------------|


  E  S S S S E  S S S S    E  S S S S E  S S S S    E.  E.  E.  E.   
------------------------|------------------------|------------------|
------------------------|------------------------|------------------|
------------------------|------------------------|--5---5---5---5---|
--4--4-4-4-4-4--4-4-4-4-|--4--4-4-4-4-4--4-4-4-4-|------------------|


  E.  E.  E.  E.     E.  E.  E.  E.     E.  E.  E.  E.     H.            
------------------|------------------|------------------|---------------|
------------------|------------------|------------------|---------------|
--6---6---6---6---|--5---5---5---5---|--6---6---6---6---|--0------------|
------------------|------------------|------------------|---------------|


  H.                Q    E  E  E  E     Q    E  E  E  E     Q    E  E  E  E   
---------------||--------------------|-------------------|-------------------|
---------------||*-------------------|-------------------|-------------------|
--0------------||*-------------------|-------------------|-------------------|
---------------||---0----0--0--0--0--|--0----0--0--0--0--|--0----0--0--0--0--|


  Q    E  E  E  E     Q    E  E  E  E     Q    E  E  E  E     Q    E  E  E  E   
-------------------|-------------------|-------------------|-------------------|
-------------------|-------------------|-------------------|-------------------|
-------------------|-------------------|--0----0--0--0--0--|--0----0--0--0--0--|
--0----0--0--0--0--|--0----0--0--0--0--|-------------------|-------------------|


  E.  E.  E.  E.     E.  E.  E.  E.     E.  E.  E.  E.     E.  E.  E.  E.   
------------------|------------------|------------------|------------------|
------------------|----------2---2---|------------------|--1---1---4---4---|
--1---1---1---1---|--4---4-----------|--2---2---2---2---|------------------|
------------------|------------------|------------------|------------------|


  E.  E.  E.  E.     E.  E.  E.  E.     Q.     Q.        Q.     Q.        
------------------|------------------|----------------|-----------------||
----------2-------|----------2-------|----------------|----------------*||
------2-------2---|------2-------2---|----------------|----------------*||
--0---------------|--0---------------|--0------0------|--0------0-------||


---------||
---------||
---------||
---------||




Duration Legend
---------------
W - whole
H - half
Q - quarter
E - 8th
S - 16th
T - 32nd
X - 64th
. - note dotted
|-n-|  - n-tuplets


Tablature Legend
----------------
L - tied note
x - dead note
g - grace note
(n) - ghost note
> - accentuded note
NH - natural harmonic
AH - artificial harmonic
TH - tapped harmonic
SH - semi harmonic
PH - pitch harmonic
h - hammer on
p - pull off
b - bend
br - bendRelease
pb - preBend
pbr - preBendRelease
brb - bendReleaseBend
\n/ - tremolo bar dip
\n - tremolo bar dive
-/n - tremolo bar Release up
/n\ - tremolo bar inverted dip
/n - tremolo bar return
-\n - tremolo bar Release down
S - shift slide
s - legato slide
/ -  slide into from below or out of upwards
\ -  slide into from above or out of downwards
~ - vibrato
W - wide vibrato
tr - trill
TP - tremolo picking
T - tapping
S - slap
P - pop
< - fade in
^ - brush up
v - brush down





Comments


Popular Yngwie Malmsteen tabs & chords
Vengeance Bass Tabs
Adagio 1 Tabs
As Above, So Below 1 Tabs
Black Star 1 Tabs
Don't Let It End Tabs
Evil Eye Tabs
Fugue Tabs
I'll See The Light Tonight Tabs
My Resurrection 1 Tabs
See You In Hell Tabs


Song lyrics



↑ Back to top | Tablatures and chords are parodies/interpretations of the original songs. You may use it for private study, scholarship, research or language learning purposes only
© 2014 AZChords.com Contact us | Privacy policy | DMCA | Add/correct tabs | Request tabs | Top 50 tabs