» » »

Yiruma, River Flows In You Tabs (ver.3)

Artists:  A B C D E F G H I J K L M N O P Q R S T U V W X Y Z # 

River Flows In You Tabs (ver.3)

Yiruma Tabs
 Rating:
4/5 (9 votes)
River Flows In You lessons Tabs too difficult? Try these video lessons and learn fast
                *PART1:
e|---------5-4-5-4-5--0--5-------------------|
b|------2-------------------3----------------|
g|---2---------------------------------------|2x tong part na to...
d|-----------------0-------------------------|
a|-------------------------------------------|
e|---------2---------------------------------|
*PART2:
e|-------5-4-5-4-5--0--5---------------------|
b|----2------------------3-2-3-3/5--2-0------|
g|--2----------------------------------------|
d|---------------0---------------------------|
a|-------------------------0-----------------|
e|-------2----------------------------0------|

e|-------------------------------------------|
b|--------------2/3-4--3-2-0-----------------|
g|-2-1-2--2/4--------------------------------|
d|--------------0----------------------------|
a|------------------0------------------------|
e|-----2-------------------0-----------------|
*PART3:
e|-------5-4-5-4-5--0--5-----------7/9--7----|
b|----2------------------3-2-3-3/5-----------|
g|--2----------------------------------------|
d|---------------0---------------------------|
a|-------------------------0-----------------|
e|-------2------------------------------0----|

e|--7/9/7--5-4-5-----------------------------|
b|----------------------2-2/3-4--3-2-0-------|
g|-----------------2/4-----------------------|
d|----------------------0--------------------|
a|----------------------------0--------------|
e|-------------2---------------------0-------|
*PART4:
e|-------------------------------------------|
b|-10-12-10-9--10---10--12-10-9--10----------|
g|----------------9-------------------9------|
d|--------------------------------0----------|
a|--------------9----------------------------|
e|-------------------------------------------|

e|--------------------9-10-12-10-9-----------|
b|-10-12-10-9--10--12--------------10-9------|
g|-------------------------------------------|
d|-------------------------------------------| 4x repeat this part 4..
a|--------------0----------------------------| 
e|------------------------------------0------| 

*PART 5:
e|-------5-4-5-4-5--0--5-----------7/9--7----|
b|----2------------------3-2-3-3/5-----------|
g|--2----------------------------------------|
d|---------------0---------------------------|
a|-------------------------0-----------------|
e|-------2------------------------------0----|

e|--7/9/7--5-4-5-----------------------------|
b|----------------------2-2/3-4--3-2-0-------|
g|-----------------2/4-----------------------|
d|----------------------0--------------------|
a|----------------------------0--------------|
e|-------------2---------------------0-------| 

E||------------------2--------|
B||----------------2----------|
G||-2-1----------2------------|
D||-----------4---------------|
A||--------4------------------|
e||-----2---------------------|

E2 UNG PATTERN:  [ d ako sure kung tama tong pattern pero ayusin nio nlng^^ ]

PART 1 - REPEAT 2X
PART 2
PART 3 
PART 4- REPEAT 4X 
PART 2
PART 3
PART 4- REPEAT 4X
PART 5


~meron pong kulang yan d ko po maxadong alam kaya d ko nilagay... pero kahit yan lang ok na :D
            
Submit corrections

comments powered by Disqus
↑ Back to top | Yiruma Tabs for River Flows In You. Lyrics for acoustic guitar and electric guitar. Tablatures and chords are parodies/interpretations of the original songs. You may use it for private study, scholarship, research or language learning purposes only