» » »

Yiruma, River Flows In You Bass tabs (ver.1)

Artists:  A B C D E F G H I J K L M N O P Q R S T U V W X Y Z # 

River Flows In You Bass tabs (ver.1)

Yiruma Tabs
 Rating:
3.8/5 (5 votes)
River Flows In You lessons Tabs too difficult? Try these video lessons and learn fast
                River Flows in You
Tuning: Standard

G|---------11--------------9-------|
D|----11-----------0---7-----------|
A|9--------------------------------|
E|---------------------------------|

G|9-----------------------|
D|------------------------|
A|------------------------|
E|------------------------|

G|---------11--------------9-------|
D|----11-----------0---7-----------|
A|9--------------------------------|
E|---------------------------------|

G|9-----------------------|
D|------------------------|
A|------------------------|
E|------------------------|

G|---------11----------------9-----|
D|----11----------------12---------|
A|9--------------------------------|
E|----------------10------------10-|

G|--------------------------9------|
D|--------10-----------10----------|
A|0---7-----------10---------------|
E|---------------------------------|

G|---------11--------------9-------|
D|----11-----------0---7-----------|
A|9--------------------------------|
E|---------------------------------|

G|---------------------------13----|
D|--------10-----------------------|
A|0---7-----------------14---------|
E|-----------------12--------------|

G|---------11----------------9-----|
D|----11----------------12---------|
A|9--------------------------------|
E|-----------------10------------10|

G|--------6---------------9--------|
D|----7-----------7---9------------|
A|0-----------0--------------------|
E|---------------------------------|

G|---------11--------------9-------|
D|----11-----------0---7-----------|
A|9--------------------------------|
E|---------------------------------|



G|-------------------------9-------|
D|--------10-----------9-----------|
A|0---7------------7---------------|
E|---------------------------------|

G|---------11---------------9------|
D|----11------------0---7-------0--|
A|9-------------9------------------|
E|---------------------------------|

G|-------------------------9-------|
D|--------10-----------9-----------|
A|0---7--------0---7-----------7---|
E|---------------------------------|

G|---------11---------------9------|
D|----11------------0---7-------0--|
A|9-------------9------------------|
E|---------------------------------|

G|-------------------------9-------|
D|--------10-----------9-----------|
A|0---7--------0---7-----------7---|
E|---------------------------------|

G|--------------------------9------|
D|--------4------------12----------|
A|----4----------------------------|
E|2-----------2---10------------10-|

G|---------------------------------|
D|--------10-----------------------|
A|0---7--------0-----------9-------|
E|-----------------0---7-------0---|

G|--------------------------9------|
D|--------4------------------------|
A|----4----------------12----------|
E|2-----------2---10------------10-|

G|---------------------------------|
D|--------11---------------6-------|
A|0---9--------0-------------------|
E|-----------------0---7-----------|

G|---------11---------------9------|
D|----11------------0---7-------0--|
A|9--------------------------------|
E|---------------------------------|

G|--------6---------------9-------|
D|--------------------9-----------|
A|0---7-------0---7---------------|
E|--------------------------------|

G|--------------------9-------9---|
D|----10----------0---------------|
A|7-------------------------------|
E|--------------------------------|
G|--------6---------------9--------|
D|--------------------9------------|
A|0---7-------0---7----------------|
E|---------------------------------|

G|---------10---------------9------|
D|----10------------0---7-------0--|
A|8-------------8------------------|
E|---------------------------------|

G|--------6---------------9--------|
D|----7---------------9------------|
A|0-----------0---7-----------7----|
E|---------------------------------|

G|---------11---------------9------|
D|----11------------0---7-------0--|
A|9--------------------------------|
E|---------------------------------|

G|---------------------------------|
D|--------7------------------------|
A|0---7-------0-----------10-------|
E|----------------0---9--------0---|

G|------------------------5--------|
D|--------4-------0---7-------0----|
A|----3----------------------------|
E|2-----------2--------------------|

G|---------------------------------|
D|--------5------------------------|
A|0---7-------0-----------9--------|
E|----------------0---7-------0----|

G|-------------------------9-------|
D|--------4------------7-----------|
A|----4----------------------------|
E|2-----------2---10-----------10--|

G|--------5------------------------|
D|---------------------------------|
A|0---7-------0-----------10-------|
E|----------------0---7--------0---|

G|-------------------------9-------|
D|--------5------------7-----------|
A|----4----------------------------|
E|2-----------2---10-----------10--|

G|--------5---------------0--------|
D|---------------------------------|
A|0---7-------0-------2------------|
E|----------------0-----------0----|

G|-------------------------9-------|
D|--------5------------7-----------|
A|----4----------------------------|
E|2-----------2---10-----------10--|

G|--------5---------------0--------|
D|---------------------------------|
A|0---7-------0-------2------------|
E|----------------0----------------|

G|6-------------------7---9-------|
D|4-------------------------------|
A|----------------9-----------9---|
E|--------------------------------|

G|----------13---13----------------|
D|-----11--------14----------------|
A|---------------------------------|
E|12-------------------------------|

G|---------------------7---9-------|
D|---------------------------------|
A|----9-----------10---------------|
E|7--------------------------------|

G|---------------------------14---|
D|--------10----------------------|
A|0---7---------------------------|
E|-----------------12---14--------|

G|---------11----------------------|
D|----11--------------------14-----|
A|9--------------------12----------|
E|----------------10-------------10|

G|------------------------10------|
D|--------10----------9-----------|
A|0---7-----------7---------------|
E|--------------------------------|

G|------------------------7-------|
D|--------4-------0---7-----------|
A|----4---------------------------|
E|3-------------------------------|

G|--------5---------------0-------|
D|--------------------------------|
A|0---7---------------2-----------|
E|----------------0---------------|

G|--------------------------------|
D|--------4-----------------------|
A|----4---------------------------|
E|2-------------------------------|
            
Submit corrections

comments powered by Disqus
↑ Back to top | Yiruma Bass for River Flows In You. Lyrics for acoustic guitar and electric guitar. Tablatures and chords are parodies/interpretations of the original songs. You may use it for private study, scholarship, research or language learning purposes only