>
 >
Reason

Reason Guitar Tabs

Yiruma - Reason chords, tabs, tablatures, lyrics

Guitar lessons | Add/correct | Request | Top 50 tabs Artists:  A B C D E F G H I J K L M N O P Q R S T U V W X Y Z 0-9

Reason Guitar Tabs – Yiruma

CD, Sheet music, Poster

Do you like Reason? Share with your friends now
Tabs
Yiruma - Reason(Guitar)Autumn in my Heart Ost


Tuning:standard

h = hammer on


e|--5--4--5--------2-------0--5--4--5--------------------5--4--5-------------|
B|--------------3-----------------------------5-----------------------5------|
G|-----------2----------------------------6---------------------------2------|
D|--------0----------------------------7------7------------------------------|
A|----------------------------------4--------------------------2------4------|
E|---------------------------------------------------------------------------|



e|--2-----------7----9---------------7------------5--------------------------|
B|--3----------------7--------------6----------------------------------------|
G|-----2--------7------------------7-----------------------------------------|
D|--0------------------------------------------------------------------------|
A|---------------------------------------------------------------------------|
E|---------------------------------------------------------------------------|



e|----------0----------------------------------------------0-----------------|
B|--0-h-2---------------------0-------------7---7----------0-----------------|
G|--------------2---------2---2------4---6------4----------------------4-----|
D|---------------------2------------------------6-----6-------------6--------|
A|------------------0------------------------------7-------------7-----------|
E|---------------------------------------------------------------------------|







e|---------------------2--4--5-----4-----------------------------------------|
B|--------------2--2------------------------5-----5--7----------------5------|
G|--2------------------------------------6-------------------------7---------|
D|--------4---------------------------6-----------------7-------7------------|
A|-----4---------------------------4------------------------5----------------|
E|--2------------------------------------------------------------------------|



e|-----------------------------------0---------------------------------------|
B|--5--7---------------5------------------3--3---2--2--0-----0---------------|
G|------------------6---------6--------------0------------2-------------2--1-|
D|--------7------7---------7--------------0---------------------------2------|
A|-----------4------------------------------------------------------2--------|
E|-----------------------------------3----------------------------0----------|



e|-----0----------------------------------------0----------------------------|
B|--2----------------0-----------7---7----------0----------------------------|
G|--------2-------2--2------4--6-----4--------------------4------------------|
D|--------------2--------------------6-----6------------------6--------------|
A|-----------0--------------------------7-------------7----------------------|
E|---------------------------------------------------------------------------|



e|-------------------2--4--5--4----------------------------------------------|
B|------------2--2----------------------5-----5--7-----------------5---------|
G|--2---------2----------------------6--------------------------7------------|
D|--------4-----------------------6------------------7-------7---------------|
A|-----4----------------------4--------------------------5-------------------|
E|--2------------------------------------------------------------------------|



e|-------------------------------0-------------------------------------0-----|
B|--5--7--------------5---------------3--3--2--3------2--0-------------0-----|
G|----------------6---6-----2------------0------------------------1----------|
D|--------7-----7---------------------0------------------------2-------------|
A|-----------4----------------------------------------------2----------------|
E|-------------------------------0-----------------------0-------------------|



e|-----------------------------------------2---------0-----------------------|
B|--3---------5--5--3--3--2--2---------------------------2--2---------3------|
G|--4---------4----------------------------3-------------3----------4--------|
D|--------5-----------------------------4------------4------------4----------|
A|-----5-----------------------------4-----------1--------------2------------|
E|--3-----------------------------2------------------------------------------|



e|--------------------------------0----3----------------------------------2--|
B|--3--2--2--3---------3--0----0-------3---------5--5--4--4--2--2------------|
G|--------2---------------1----------------------4------------------------3--|
D|-----4---------------2---------------------5-----------------------4-------|
A|--0---------------2---------------------5----------------------------------|
E|---------------0---------------------3------------------------2------------|











e|-----0---------------------------0--2--5--5----------4-------0------0------|
B|----------2--2------------3--3---------3------------------0---------0------|
G|----------3------------4------------2----------------1---------------------|
D|-----4--------------4------------4--------------2--------------------------|
A|--1--------------2-----------0---------------2-----------------------------|
E|------------------------------------------0-------------------------0------|



e|--------0---------------------0--1------------2-------2--4---------------5-|
B|--2--3---------------2-----2------------------3----3-------------5---------|
G|------------------4--4--------------------4--------------------------6-----|
D|--------------2------------------------4-------------------------6---------|
A|-----------0------------------------2------------------------4-------------|
E|---------------------------------------------------------------------------|



e|-----------0-----2----0-----------------------0-------------0-------0---2--|
B|-----------------3-------3--2--0-------2---3----------------2----2---------|
G|-----------2-------------4--------------------1----------4--4--------------|
D|--------4-------------4--------------------2----------2--------------------|
A|-----4-----------2---------------------2-----------0-----------------------|
E|--2--------------------------------0---------------------------------------|



e|-----------2----2--4-------------7--5-------------9-------7------------------|
B|-----------3--3----------5---------------------------------------------------|
G|--------4-------------------6----------------2-----------------7-------------|
D|-----4-------------------6----------------4---------------9------------------|
A|--2-------------------4----------------4--------------9----------------------|
E|------------------------------------2-------------7--------------------------|



e|-----2--4--5---7------------0-----5-------5--5-----------------------------|
B|-----------3------------9---0-----6-------6----6-------2-------0-----------|
G|--------2-------------9----------------7---------7----------2--2--------2--|
D|-----4-------------9-----------------7-------------7------2-------------0--|
A|--0-------------------------------5--------------------0-----------0-------|
E|---------------0------------0----------------------------------------------|



e|--1--------------------------------------5--4--5--------2----0--5--4-------|
B|--3------2--0------------------2--------------------3----------------------|
G|---------------2---2-----2--2--4------------------2------------------------|
D|------------2---------2------------------------0---------------------------|
A|---------2---------0-------------------------------------------------------|
E|------0--------------------------------------------------------------------|


e|--5----------------2--------------5--------------7----------------------0--|
B|-----------5---2---3-------5------3------------5---------0-h-2--------0----|
G|--------6---------------------6------4-------7----------2-----------2------|
D|-----7----------------4-----------0--------------------2----------2--------|
A|--4----------------2-------4--------------7-----------0--------------------|
E|---------------------------------------------------------------------------|





Comments


Popular Yiruma tabs & chords
Bellas Lullaby Chords
River Flows In You Chords
Kiss The Rain 2 Tabs
Kiss The Rain 4 Tabs
Kiss The Rain 6 Tabs
River Flows In You 3 Tabs
River Flows In You 4 Tabs
River Flows In You 6 Tabs
River Flows In You 7 Tabs
Kiss The Rain Ukulele


Song lyrics



↑ Back to top | Tablatures and chords are parodies/interpretations of the original songs. You may use it for private study, scholarship, research or language learning purposes only
© 2014 AZChords.com Contact us | Privacy policy | DMCA | Add/correct tabs | Request tabs | Top 50 tabs