» » »

Two Weeks From Twenty Tabs

Artists:  A B C D E F G H I J K L M N O P Q R S T U V W X Y Z # 

Two Weeks From Twenty Tabs

(ver. 1)
Yellowcard Tabs
 Rating:
4/5 (4 votes)
    Two Weeks From Twenty lessons Tabs too difficult? Try these video lessons and learn fast
                ------------------------------------
 Two Weeks From Twenty ~ Yellowcard
------------------------------------

(I know, pretty lame name)

Tuning: Standard

Tempo: 117

Key: Changes from C to A between certain parts.


Legend
L - tied note
x - dead note
h - hammer on/pull off
b - bend
s - slide
~ - vibrato
g - ghost note
> - accentuated note
t - trill
M - palm mute
. - staccato
P - popping (bass)
S - slapping (bass)
+ - tapping
W - wide vibrato
< - fade in
w - whammy bar
= - tremolo picking
v - brush up
^ - brush down
V - pick stroke up
n - pick stroke down


CLEAN GUITAR 

   Intro
E |----------------------------|----------------------------|
B |--------10----------10------|--------8-----------8-------|
G |--------9--------9--9-------|--------7-----------7-------|
D |--10-10----10-10-10----10---|--9--9-----9--9--9----------|
A |--8--8-----8--8--8-----8----|--7--7-----7--7--7-----7s---|
E |----------------------------|----------------------------|


----------------------------|----------------------------|
--------3-----------3-------|--------10----------10------|
--------3-----------3-------|--------9-----------9-------|
--------------2--2----------|-----------10-10-10----10---|
--3--3-----3--3--3-----3----|--8s-8-----8--8--8-----8----|
----------------------------|----------------------------|


----------------------------|----------------------------|
--------9-----------9-------|--------5-----------9-------|
--------8-----------8-------|--------4-----------9-------|
--10-10----10-10-10----10---|--6--6-----6----------------|
--8--8-----8--8--8-----8----|--4--4-----4--9s-9-----9----|
----------------------------|----------------------------|


----------------------------|----------------------------|
--------10----------10------|--------10----------10------|
--------9-----------9-------|--------9-----------9-------|
--10-10----10-10-10----10---|--10-10----10-10-10---------|
--8--8-----8--8--8-----8----|--8--8-----8--8--8----------|
----------------------------|----------------------------|


----------------------------|----------------------------|
--------10----------10------|--------10----------10-0----|
--------10----------10------|--------9-----------9-------|
-----9-----9--9--9-----9----|--9--9-----9--9--9----------|
--10-10----10-10-10----10---|--10-10----10-10-10---------|
----------------------------|----------------------------|


Verse
-----0--0--0L-0--0--0--0----|--0--0--0--0L-0--0--0--0----|
-----2--2--2L-2--2--2--2----|--2--2--2--2L-2--2--2--3----|
-----2--2--2L-2--2--2--1----|--0--0--0--0L-0--0--0-------|
--2--2--2--2L-2--2--2--2----|--2--2--2--2L-2--2--2-------|
--0--0--0--0L-0--0--0--0----|--0--0--0--0L-0--0--0-------|
----------------------------|----------------------------|


--2--2--2--2L-2--2--2--2----|--2--2--2--2L-2--2--2-------|
--3--3--3--3L-3--3--3--2----|--1--1--1--1L-1--1--1--0----|
--2--2--2--2L-2--2--2-------|--2--2--2--2L-2--2--2--0----|
--0--0--0--0L-0--0--0-------|--0--0--0--0L-0--0--0-------|
----------------------------|----------------------------|
----------------------------|----------------------------|


--1--1--1--1L-1--1--1-------|--3--3--3--3L-3-------------|
--1--1--1--1L-1--1--1--0----|--3--3--3--3L-3--3--3--0----|
--2--2--2--2L-2--2--2--0----|--0--0--0--0L-0--0--0--0----|
--3--3--3--3L-3--3--3-------|--0--0--0--0L-0--0--0--0----|
--3--3--3--3L-3--3--3-------|--x--x--x--x--x--x--x-------|
--1--1--1--1L-1--1--1-------|--3--3--3--3L-3--3--3-------|


-----0----------------------|-----0--0--0L-0--0--0--0----|
--1--1--1--1L-1--1--1--0----|-----2--2--2L-2--2--2--2----|
--0--0--0--0L-0--0--0--0----|-----2--2--2L-2--2--2--1----|
--2--2--2--2L-2--2--2--0----|--2--2--2--2L-2--2--2--2----|
--3--3--3--3L-3--3--3-------|--0--0--0--0L-0--0--0--0----|
----------------------------|----------------------------|


--0--0--0--0L-0--0--0--0----|--2--2--2--2L-2--2--2--2----|
--2--2--2--2L-2--2--2--3----|--3--3--3--3L-3--3--3--2----|
--0--0--0--0L-0--0--0-------|--2--2--2--2L-2--2--2-------|
--2--2--2--2L-2--2--2-------|--0--0--0--0L-0--0--0-------|
--0--0--0--0L-0--0--0-------|----------------------------|
----------------------------|----------------------------|


--2--2--2--2L-2--2--2-------|--1--1--1--1L-1--1--1-------|
--1--1--1--1L-1--1--1--0----|--1--1--1--1L-1--1--1--0----|
--2--2--2--2L-2--2--2--0----|--2--2--2--2L-2--2--2--0----|
--0--0--0--0L-0--0--0-------|--3--3--3--3L-3--3--3-------|
----------------------------|--3--3--3--3L-3--3--3-------|
----------------------------|--1--1--1--1L-1--1--1-------|


--3--3--3--3L-3-------------|-----------0L-0--0--0--0----|
--3--3--3--3L-3--3--3--0----|--1--1--1--1L-1--1--1--1----|
--0--0--0--0L-0--0--0--0----|--0--0--0--0L-0--0--0--0----|
--0--0--0--0L-0--0--0--0----|--2--2--2--2L-2--2--2--2----|
--x--x--x--x--x--x--x-------|--3--3--3--3L-3--3--3--3----|
--3--3--3--3L-3--3--3-------|----------------------------|

                             Chorus
--0--0--0--0L-0--0--0-------|----------------------------|
--1--1--1--1L-1--1--1--0----|--------10----------10------|
--0--0--0--0L-0--0--0--0----|--------9--------9--9-------|
--2--2--2--2L-2--2--2--0----|--10-10----10-10-10----10---|
--3--3--3--3L-3--3--3-------|--8--8-----8--8--8-----8----|
----------------------------|----------------------------|


----------------------------|----------------------------|
--------8-----------8-------|--------3-----------3-------|
--------7-----------7-------|--------3-----------3-------|
--9--9-----9--9--9----------|--------------2--2----------|
--7--7-----7--7--7-----7s---|--3--3-----3--3--3-----3----|
----------------------------|----------------------------|


----------------------------|----------------------------|
--------10----------10------|--------9-----------9-------|
--------9-----------9-------|--------8-----------8-------|
-----------10-10-10----10---|--10-10----10-10-10----10---|
--8s-8-----8--8--8-----8----|--8--8-----8--8--8-----8----|
----------------------------|----------------------------|


----------------------------|----------------------------|
--------5-----------9-------|--------10----------10------|
--------4-----------9-------|--------9-----------9-------|
--6--6-----6----------------|--10-10----10-10-10----10---|
--4--4-----4--9s-9-----9----|--8--8-----8--8--8-----8----|
----------------------------|----------------------------|


----------------------------|----------------------------|
--------10----------10------|--------10----------10------|
--------9-----------9-------|--------10----------10------|
--10-10----10-10-10---------|-----9-----9--9--9-----9----|
--8--8-----8--8--8----------|--10-10----10-10-10----10---|
----------------------------|----------------------------|

                             Verse
----------------------------|-----0--0--0L-0--0--0--0----|
--------10----------10-0----|-----2--2--2L-2--2--2--2----|
--------9-----------9-------|-----2--2--2L-2--2--2--1----|
--9--9-----9--9--9----------|--2--2--2--2L-2--2--2--2----|
--10-10----10-10-10---------|--0--0--0--0L-0--0--0--0----|
----------------------------|----------------------------|


--0--0--0--0L-0--0--0--0----|--2--2--2--2L-2--2--2--2----|
--2--2--2--2L-2--2--2--3----|--3--3--3--3L-3--3--3--2----|
--0--0--0--0L-0--0--0-------|--2--2--2--2L-2--2--2-------|
--2--2--2--2L-2--2--2-------|--0--0--0--0L-0--0--0-------|
--0--0--0--0L-0--0--0-------|----------------------------|
----------------------------|----------------------------|


--2--2--2--2L-2--2--2-------|--1--1--1--1L-1--1--1-------|
--1--1--1--1L-1--1--1--0----|--1--1--1--1L-1--1--1--0----|
--2--2--2--2L-2--2--2--0----|--2--2--2--2L-2--2--2--0----|
--0--0--0--0L-0--0--0-------|--3--3--3--3L-3--3--3-------|
----------------------------|--3--3--3--3L-3--3--3-------|
----------------------------|--1--1--1--1L-1--1--1-------|


--3--3--3--3L-3-------------|-----0----------------------|
--3--3--3--3L-3--3--3--0----|--1--1--1--1L-1--1--1--0----|
--0--0--0--0L-0--0--0--0----|--0--0--0--0L-0--0--0--0----|
--0--0--0--0L-0--0--0--0----|--2--2--2--2L-2--2--2--0----|
--x--x--x--x--x--x--x-------|--3--3--3--3L-3--3--3-------|
--3--3--3--3L-3--3--3-------|----------------------------|


-----0--0--0L-0--0--0--0----|--0--0--0--0L-0--0--0--0----|
-----2--2--2L-2--2--2--2----|--2--2--2--2L-2--2--2--3----|
-----2--2--2L-2--2--2--1----|--0--0--0--0L-0--0--0-------|
--2--2--2--2L-2--2--2--2----|--2--2--2--2L-2--2--2-------|
--0--0--0--0L-0--0--0--0----|--0--0--0--0L-0--0--0-------|
----------------------------|----------------------------|


--2--2--2--2L-2--2--2--2----|--2--2--2--2L-2--2--2-------|
--3--3--3--3L-3--3--3--2----|--1--1--1--1L-1--1--1--0----|
--2--2--2--2L-2--2--2-------|--2--2--2--2L-2--2--2--0----|
--0--0--0--0L-0--0--0-------|--0--0--0--0L-0--0--0-------|
----------------------------|----------------------------|
----------------------------|----------------------------|


--1--1--1--1L-1--1--1-------|--3--3--3--3L-3-------------|
--1--1--1--1L-1--1--1--0----|--3--3--3--3L-3--3--3--0----|
--2--2--2--2L-2--2--2--0----|--0--0--0--0L-0--0--0--0----|
--3--3--3--3L-3--3--3-------|--0--0--0--0L-0--0--0--0----|
--3--3--3--3L-3--3--3-------|--x--x--x--x--x--x--x-------|
--1--1--1--1L-1--1--1-------|--3--3--3--3L-3--3--3-------|


-----------0L-0--0--0--0----|--0--0--0--0L-0--0--0-------|
--1--1--1--1L-1--1--1--1----|--1--1--1--1L-1--1--1--0----|
--0--0--0--0L-0--0--0--0----|--0--0--0--0L-0--0--0--0----|
--2--2--2--2L-2--2--2--2----|--2--2--2--2L-2--2--2--0----|
--3--3--3--3L-3--3--3--3----|--3--3--3--3L-3--3--3-------|
----------------------------|----------------------------|

Chorus
----------------------------|----------------------------|
--------10----------10------|--------8-----------8-------|
--------9--------9--9-------|--------7-----------7-------|
--10-10----10-10-10----10---|--9--9-----9--9--9----------|
--8--8-----8--8--8-----8----|--7--7-----7--7--7-----7s---|
----------------------------|----------------------------|


----------------------------|----------------------------|
--------3-----------3-------|--------10----------10------|
--------3-----------3-------|--------9-----------9-------|
--------------2--2----------|-----------10-10-10----10---|
--3--3-----3--3--3-----3----|--8s-8-----8--8--8-----8----|
----------------------------|----------------------------|


----------------------------|----------------------------|
--------9-----------9-------|--------5-----------9-------|
--------8-----------8-------|--------4-----------9-------|
--10-10----10-10-10----10---|--6--6-----6----------------|
--8--8-----8--8--8-----8----|--4--4-----4--9s-9-----9----|
----------------------------|----------------------------|


----------------------------|----------------------------|
--------10----------10------|--------10----------10------|
--------9-----------9-------|--------9-----------9-------|
--10-10----10-10-10----10---|--10-10----10-10-10---------|
--8--8-----8--8--8-----8----|--8--8-----8--8--8----------|
----------------------------|----------------------------|


----------------------------|----------------------------|
--------10----------10------|--------10----------10-0----|
--------10----------10------|--------9-----------9-------|
-----9-----9--9--9-----9----|--9--9-----9--9--9----------|
--10-10----10-10-10----10---|--10-10----10-10-10---------|
----------------------------|----------------------------|

Guitar Solo
--3--3--3--3L-3--3--3--3----|--3--3--3--3L-3--3-----0----|
--1--1--1--1L-1--1--1--1----|--1--1--1--1L-1--1-----0----|
--0--0--0--0L-0--0--0--0----|--0--0--0--0L-0--0-----0----|
--2--2--2--2L-2--2--2--2----|--2--2--2--2L-2--2-----0----|
--0--0--0--0L-0--0--0--0----|--0--0--0--0L-0--0----------|
----------------------------|----------------------------|


----------------------------|----------------------------|
--8--8--8--8--8--8--8--8----|--8--8--8--8--8--8--8--0----|
--8--8--8--8--8--8--8--8----|--8--8--8--8--8--8--8--0----|
--7--7--7--7--7--7--7--7----|--7--7--7--7--7--7--7-------|
--8--8--8--8--8--8--8--8----|--8--8--8--8--8--8--8-------|
----------------------------|----------------------------|


--3--3--3--3L-3--3--3--3----|--3--3--3--3L-3--3-----0----|
--1--1--1--1L-1--1--1--1----|--1--1--1--1L-1--1-----0----|
--0--0--0--0L-0--0--0--0----|--0--0--0--0L-0--0-----0----|
--2--2--2--2L-2--2--2--2----|--2--2--2--2L-2--2-----0----|
--0--0--0--0L-0--0--0--0----|--0--0--0--0L-0--0----------|
----------------------------|----------------------------|


----------------------------|----------------------------|
--8--8--8--8--8--8--8--8----|--8--8--8--8--8--8--8--0----|
--8--8--8--8--8--8--8--8----|--8--8--8--8--8--8--8--0----|
--7--7--7--7--7--7--7--7----|--7--7--7--7--7--7--7-------|
--8--8--8--8--8--8--8--8----|--8--8--8--8--8--8--8-------|
----------------------------|----------------------------|


----------------------------|----------------------------|
--6--6--6--6--6--6--6--6----|--6--6--6--6--6--6--6-------|
--7--7--7--7--7--7--7--7----|--6--6--6--6--6--6--6--0----|
--8--8--8--8--8--8--8--8----|--8--8--8--8--8--8--8-------|
--8--8--8--8--8--8--8--8----|--8--8--8--8--8--8--8-------|
----------------------------|----------------------------|


----------------------------|----------------------------|
--10----10-10-8--8--8-------|--6--6--6--6--6--6--6-------|
--10----10-10-5--5--5-------|--5--5--5--5--5--5--5--0----|
--10----10-10-x--x--x-------|--7--7--7--7--7--7--7--0----|
--8-----8--8--7--7--7-------|--5--5--5--5--5--5--5-------|
----------------------------|----------------------------|

                             Verse
--------3--3L-3--3----------|----------|-------|-------|-------|----------|
--3--3--3--3L-3--3-----0----|--3--2----|--10---|--10---|--8----|-----12---|
--3--3--3--3L-3--3-----0----|--3--3----|--9----|--10---|--7----|-----12---|
--3--3--3--3L-3--3-----0----|--2--2----|--10---|--9----|--9----|--14-12---|
--5--5--5--5L-5--5--5-------|--3--3----|--8----|--10---|--7----|--12-10---|
--3--3--3--3L-3--3--3-------|----------|-------|-------|-------|----------|


-------|-------|-------|----------------------------|
--6----|--10---|--8----|--------13----------12------|
--5----|--10---|--7----|-----------------------12---|
--7----|--9----|--9----|-----14----14----12---------|
--5----|--10---|--7----|--12----------10------------|
-------|-------|-------|----------------------------|

Chorus
----------------------------|----------------------------|
--------10----------10------|--------8-----------8-------|
--------9--------9--9-------|--------7-----------7-------|
--10-10----10-10-10----10---|--9--9-----9--9--9----------|
--8--8-----8--8--8-----8----|--7--7-----7--7--7-----7s---|
----------------------------|----------------------------|


----------------------------|----------------------------|
--------3-----------3-------|--------10----------10------|
--------3-----------3-------|--------9-----------9-------|
--------------2--2----------|-----------10-10-10----10---|
--3--3-----3--3--3-----3----|--8s-8-----8--8--8-----8----|
----------------------------|----------------------------|


----------------------------|----------------------------|
--------9-----------9-------|--------5-----------9-------|
--------8-----------8-------|--------4-----------9-------|
--10-10----10-10-10----10---|--6--6-----6----------------|
--8--8-----8--8--8-----8----|--4--4-----4--9s-9-----9----|
----------------------------|----------------------------|


----------------------------|----------------------------|
--------10----------10------|--------10----------10------|
--------9-----------9-------|--------9-----------9-------|
--10-10----10-10-10----10---|--10-10----10-10-10---------|
--8--8-----8--8--8-----8----|--8--8-----8--8--8----------|
----------------------------|----------------------------|


----------------------------|----------------------------|
--------10----------10------|--------10----------10-0----|
--------10----------10------|--------9-----------9-------|
-----9-----9--9--9-----9----|--9--9-----9--9--9----------|
--10-10----10-10-10----10---|--10-10----10-10-10---------|
----------------------------|----------------------------|


----------------------------|----------------------------|
--------10----------10------|--------10----------10------|
--------9-----------9-------|--------9-----------9-------|
--10-10----10-10-10----10---|--10-10----10-10-10---------|
--8--8-----8--8--8-----8----|--8--8-----8--8--8----------|
----------------------------|----------------------------|


----------------------------|----------------------------|
--------10----------10------|--------10----------10------|
--------10----------10------|--------9-----------9-------|
-----9-----9--9--9-----9----|--9--9-----9--9--9----------|
--10-10----10-10-10----10---|--10-10----10-10-10---------|
----------------------------|----------------------------|


----------------------------|----------------------------|
--------10----------10------|--------10----------10------|
--------9-----------9-------|--------9-----------9-------|
--10-10----10-10-10----10---|--10-10----10-10-10---------|
--8--8-----8--8--8-----8----|--8--8-----8--8--8----------|
----------------------------|----------------------------|


----------------------------|----------------------------|
--------10----------10------|--------10----------10------|
--------10----------10------|--------9-----------9-------|
-----9-----9--9--9-----9----|--9--9-----9--9--9----------|
--10-10----10-10-10----10---|--10-10----10-10-10---------|
----------------------------|----------------------------|


----------------------------|----------------------------|
--------10----------10------|--------10----------10------|
--------9-----------9-------|--------9-----------9-------|
--10-10----10-10-10----10---|--10-10----10-10-10---------|
--8--8-----8--8--8-----8----|--8--8-----8--8--8----------|
----------------------------|----------------------------|


----------------------------|----------------------------|
--------10----------10------|--------10----------10------|
--------10----------10------|--------9-----------9-------|
-----9-----9--9--9-----9----|--9--9-----9--9--9----------|
--10-10----10-10-10----10---|--10-10----10-10-10---------|
----------------------------|----------------------------|

Outro / Trumpet Solo
----------------------------|----------------------------|
--------10----------10------|--------10----------10------|
--------9-----------9-------|--------9-----------9-------|
--10-10----10-10-10----10---|--10-10----10-10-10---------|
--8--8-----8--8--8-----8----|--8--8-----8--8--8----------|
----------------------------|----------------------------|


----------------------------|----------------------------|
--------10----------10------|--------10----------10------|
--------10----------10------|--------9-----------9-------|
-----9-----9--9--9-----9----|--9--9-----9--9--9----------|
--10-10----10-10-10----10---|--10-10----10-10-10---------|
----------------------------|----------------------------|


----------------------------|----------------------------|
--------10----------10------|--------10----------10------|
--------9-----------9-------|--------9-----------9-------|
--10-10----10-10-10----10---|--10-10----10-10-10---------|
--8--8-----8--8--8-----8----|--8--8-----8--8--8----------|
----------------------------|----------------------------|


----------------------------|----------------------------|
--------10----------10------|--------10----------10------|
--------10----------10------|--------9-----------9-------|
-----9-----9--9--9-----9----|--9--9-----9--9--9----------|
--10-10----10-10-10----10---|--10-10----10-10-10---------|
----------------------------|----------------------------|


----------------------------|----------------------------|
--------10----------10------|--------10----------10------|
--------9-----------9-------|--------9-----------9-------|
--10-10----10-10-10----10---|--10-10----10-10-10---------|
--8--8-----8--8--8-----8----|--8--8-----8--8--8----------|
----------------------------|----------------------------|


----------------------------|----------------------------|
--------10----------10------|--------10----------10------|
--------10----------10------|--------9-----------9-------|
-----9-----9--9--9-----9----|--9--9-----9--9--9----------|
--10-10----10-10-10----10---|--10-10----10-10-10---------|
----------------------------|----------------------------|


----------------------------|----------------------------|
--------10----------10------|--------10----------10------|
--------9-----------9-------|--------9-----------9-------|
--10-10----10-10-10----10---|--10-10----10-10-10---------|
--8--8-----8--8--8-----8----|--8--8-----8--8--8----------|
----------------------------|----------------------------|


----------------------------|----------------------------|-------||
--------10----------10------|--------10----------10------|--10---||
--------10----------10------|--------9-----------9-------|--9----||
-----9-----9--9--9-----9----|--9--9-----9--9--9----------|--10---||
--10-10----10-10-10----10---|--10-10----10-10-10---------|--8----||
----------------------------|----------------------------|-------||



ACOUSTIC GUITAR

  Intro
E |----|----|----|----|----|----|----------------------------|
B |----|----|----|----|----|----|--------10----------10------|
G |----|----|----|----|----|----|--------9-----------9-------|
D |----|----|----|----|----|----|--10-10----10-10-10----10---|
A |----|----|----|----|----|----|--8--8-----8--8--8-----8----|
E |----|----|----|----|----|----|----------------------------|


----------------------------|----------------------------|
--------10----------10------|--------10----------10------|
--------9-----------9-------|--------10----------10------|
--10-10----10-10-10---------|-----9-----9--9--9-----9----|
--8--8-----8--8--8----------|--10-10----10-10-10----10---|
----------------------------|----------------------------|

                             Verse
----------------------------|-----0--0--0L-0--0--0--0----|
--------10----------10-0----|-----2--2--2L-2--2--2--2----|
--------9-----------9-------|-----2--2--2L-2--2--2--1----|
--9--9-----9--9--9----------|--2--2--2--2L-2--2--2--2----|
--10-10----10-10-10---------|--0--0--0--0L-0--0--0--0----|
----------------------------|----------------------------|


--0--0--0--0L-0--0--0--0----|--2--2--2--2L-2--2--2--2----|
--2--2--2--2L-2--2--2--3----|--3--3--3--3L-3--3--3--2----|
--0--0--0--0L-0--0--0-------|--2--2--2--2L-2--2--2-------|
--2--2--2--2L-2--2--2-------|--0--0--0--0L-0--0--0-------|
--0--0--0--0L-0--0--0-------|----------------------------|
----------------------------|----------------------------|


--2--2--2--2L-2--2--2-------|--1--1--1--1L-1--1--1-------|
--1--1--1--1L-1--1--1--0----|--1--1--1--1L-1--1--1--0----|
--2--2--2--2L-2--2--2--0----|--2--2--2--2L-2--2--2--0----|
--0--0--0--0L-0--0--0-------|--3--3--3--3L-3--3--3-------|
----------------------------|--3--3--3--3L-3--3--3-------|
----------------------------|--1--1--1--1L-1--1--1-------|


--3--3--3--3L-3-------------|-----0----------------------|
--3--3--3--3L-3--3--3--0----|--1--1--1--1L-1--1--1--0----|
--0--0--0--0L-0--0--0--0----|--0--0--0--0L-0--0--0--0----|
--0--0--0--0L-0--0--0--0----|--2--2--2--2L-2--2--2--0----|
--x--x--x--x--x--x--x-------|--3--3--3--3L-3--3--3-------|
--3--3--3--3L-3--3--3-------|----------------------------|


-----0--0--0L-0--0--0--0----|--0--0--0--0L-0--0--0--0----|
-----2--2--2L-2--2--2--2----|--2--2--2--2L-2--2--2--3----|
-----2--2--2L-2--2--2--1----|--0--0--0--0L-0--0--0-------|
--2--2--2--2L-2--2--2--2----|--2--2--2--2L-2--2--2-------|
--0--0--0--0L-0--0--0--0----|--0--0--0--0L-0--0--0-------|
----------------------------|----------------------------|


--2--2--2--2L-2--2--2--2----|--2--2--2--2L-2--2--2-------|
--3--3--3--3L-3--3--3--2----|--1--1--1--1L-1--1--1--0----|
--2--2--2--2L-2--2--2-------|--2--2--2--2L-2--2--2--0----|
--0--0--0--0L-0--0--0-------|--0--0--0--0L-0--0--0-------|
----------------------------|----------------------------|
----------------------------|----------------------------|


--1--1--1--1L-1--1--1-------|--3--3--3--3L-3-------------|
--1--1--1--1L-1--1--1--0----|--3--3--3--3L-3--3--3--0----|
--2--2--2--2L-2--2--2--0----|--0--0--0--0L-0--0--0--0----|
--3--3--3--3L-3--3--3-------|--0--0--0--0L-0--0--0--0----|
--3--3--3--3L-3--3--3-------|--x--x--x--x--x--x--x-------|
--1--1--1--1L-1--1--1-------|--3--3--3--3L-3--3--3-------|


-----------0L-0--0--0--0----|--0--0--0--0L-0--0--0-------|
--1--1--1--1L-1--1--1--1----|--1--1--1--1L-1--1--1--0----|
--0--0--0--0L-0--0--0--0----|--0--0--0--0L-0--0--0--0----|
--2--2--2--2L-2--2--2--2----|--2--2--2--2L-2--2--2--0----|
--3--3--3--3L-3--3--3--3----|--3--3--3--3L-3--3--3-------|
----------------------------|----------------------------|

Chorus
----------------------------|----------------------------|
--------10----------10------|--------8-----------8-------|
--------9--------9--9-------|--------7-----------7-------|
--10-10----10-10-10----10---|--9--9-----9--9--9----------|
--8--8-----8--8--8-----8----|--7--7-----7--7--7-----7s---|
----------------------------|----------------------------|


----------------------------|----------------------------|
--------3-----------3-------|--------10----------10------|
--------3-----------3-------|--------9-----------9-------|
--------------2--2----------|-----------10-10-10----10---|
--3--3-----3--3--3-----3----|--8s-8-----8--8--8-----8----|
----------------------------|----------------------------|


----------------------------|----------------------------|
--------9-----------9-------|--------5-----------9-------|
--------8-----------8-------|--------4-----------9-------|
--10-10----10-10-10----10---|--6--6-----6----------------|
--8--8-----8--8--8-----8----|--4--4-----4--9s-9-----9----|
----------------------------|----------------------------|


----------------------------|----------------------------|
--------10----------10------|--------10----------10------|
--------9-----------9-------|--------9-----------9-------|
--10-10----10-10-10----10---|--10-10----10-10-10---------|
--8--8-----8--8--8-----8----|--8--8-----8--8--8----------|
----------------------------|----------------------------|


----------------------------|----------------------------|
--------10----------10------|--------10----------10-0----|
--------10----------10------|--------9-----------9-------|
-----9-----9--9--9-----9----|--9--9-----9--9--9----------|
--10-10----10-10-10----10---|--10-10----10-10-10---------|
----------------------------|----------------------------|

Verse
-----0--0--0L-0--0--0--0----|--0--0--0--0L-0--0--0--0----|
-----2--2--2L-2--2--2--2----|--2--2--2--2L-2--2--2--3----|
-----2--2--2L-2--2--2--1----|--0--0--0--0L-0--0--0-------|
--2--2--2--2L-2--2--2--2----|--2--2--2--2L-2--2--2-------|
--0--0--0--0L-0--0--0--0----|--0--0--0--0L-0--0--0-------|
----------------------------|----------------------------|


--2--2--2--2L-2--2--2--2----|--2--2--2--2L-2--2--2-------|
--3--3--3--3L-3--3--3--2----|--1--1--1--1L-1--1--1--0----|
--2--2--2--2L-2--2--2-------|--2--2--2--2L-2--2--2--0----|
--0--0--0--0L-0--0--0-------|--0--0--0--0L-0--0--0-------|
----------------------------|----------------------------|
----------------------------|----------------------------|


--1--1--1--1L-1--1--1-------|--3--3--3--3L-3-------------|
--1--1--1--1L-1--1--1--0----|--3--3--3--3L-3--3--3--0----|
--2--2--2--2L-2--2--2--0----|--0--0--0--0L-0--0--0--0----|
--3--3--3--3L-3--3--3-------|--0--0--0--0L-0--0--0--0----|
--3--3--3--3L-3--3--3-------|--x--x--x--x--x--x--x-------|
--1--1--1--1L-1--1--1-------|--3--3--3--3L-3--3--3-------|


-----0----------------------|-----0--0--0L-0--0--0--0----|
--1--1--1--1L-1--1--1--0----|-----2--2--2L-2--2--2--2----|
--0--0--0--0L-0--0--0--0----|-----2--2--2L-2--2--2--1----|
--2--2--2--2L-2--2--2--0----|--2--2--2--2L-2--2--2--2----|
--3--3--3--3L-3--3--3-------|--0--0--0--0L-0--0--0--0----|
----------------------------|----------------------------|


--0--0--0--0L-0--0--0--0----|--2--2--2--2L-2--2--2--2----|
--2--2--2--2L-2--2--2--3----|--3--3--3--3L-3--3--3--2----|
--0--0--0--0L-0--0--0-------|--2--2--2--2L-2--2--2-------|
--2--2--2--2L-2--2--2-------|--0--0--0--0L-0--0--0-------|
--0--0--0--0L-0--0--0-------|----------------------------|
----------------------------|----------------------------|


--2--2--2--2L-2--2--2-------|--1--1--1--1L-1--1--1-------|
--1--1--1--1L-1--1--1--0----|--1--1--1--1L-1--1--1--0----|
--2--2--2--2L-2--2--2--0----|--2--2--2--2L-2--2--2--0----|
--0--0--0--0L-0--0--0-------|--3--3--3--3L-3--3--3-------|
----------------------------|--3--3--3--3L-3--3--3-------|
----------------------------|--1--1--1--1L-1--1--1-------|


--3--3--3--3L-3-------------|-----------0L-0--0--0--0----|
--3--3--3--3L-3--3--3--0----|--1--1--1--1L-1--1--1--1----|
--0--0--0--0L-0--0--0--0----|--0--0--0--0L-0--0--0--0----|
--0--0--0--0L-0--0--0--0----|--2--2--2--2L-2--2--2--2----|
--x--x--x--x--x--x--x-------|--3--3--3--3L-3--3--3--3----|
--3--3--3--3L-3--3--3-------|----------------------------|

                             Chorus
--0--0--0--0L-0--0--0-------|----------------------------|
--1--1--1--1L-1--1--1--0----|--------10----------10------|
--0--0--0--0L-0--0--0--0----|--------9--------9--9-------|
--2--2--2--2L-2--2--2--0----|--10-10----10-10-10----10---|
--3--3--3--3L-3--3--3-------|--8--8-----8--8--8-----8----|
----------------------------|----------------------------|


----------------------------|----------------------------|
--------8-----------8-------|--------3-----------3-------|
--------7-----------7-------|--------3-----------3-------|
--9--9-----9--9--9----------|--------------2--2----------|
--7--7-----7--7--7-----7s---|--3--3-----3--3--3-----3----|
----------------------------|----------------------------|


----------------------------|----------------------------|
--------10----------10------|--------9-----------9-------|
--------9-----------9-------|--------8-----------8-------|
-----------10-10-10----10---|--10-10----10-10-10----10---|
--8s-8-----8--8--8-----8----|--8--8-----8--8--8-----8----|
----------------------------|----------------------------|


----------------------------|----------------------------|
--------5-----------9-------|--------10----------10------|
--------4-----------9-------|--------9-----------9-------|
--6--6-----6----------------|--10-10----10-10-10----10---|
--4--4-----4--9s-9-----9----|--8--8-----8--8--8-----8----|
----------------------------|----------------------------|


----------------------------|----------------------------|
--------10----------10------|--------10----------10------|
--------9-----------9-------|--------10----------10------|
--10-10----10-10-10---------|-----9-----9--9--9-----9----|
--8--8-----8--8--8----------|--10-10----10-10-10----10---|
----------------------------|----------------------------|

                             Guitar Solo
----------------------------|--3--3--3--3L-3--3--3--3----|
--------10----------10-0----|--1--1--1--1L-1--1--1--1----|
--------9-----------9-------|--0--0--0--0L-0--0--0--0----|
--9--9-----9--9--9----------|--2--2--2--2L-2--2--2--2----|
--10-10----10-10-10---------|--0--0--0--0L-0--0--0--0----|
----------------------------|----------------------------|


--3--3--3--3L-3--3-----0----|----------------------------|
--1--1--1--1L-1--1-----0----|--8--8--8--8--8--8--8--8----|
--0--0--0--0L-0--0-----0----|--8--8--8--8--8--8--8--8----|
--2--2--2--2L-2--2-----0----|--7--7--7--7--7--7--7--7----|
--0--0--0--0L-0--0----------|--8--8--8--8--8--8--8--8----|
----------------------------|----------------------------|


----------------------------|--3--3--3--3L-3--3--3--3----|
--8--8--8--8--8--8--8--0----|--1--1--1--1L-1--1--1--1----|
--8--8--8--8--8--8--8--0----|--0--0--0--0L-0--0--0--0----|
--7--7--7--7--7--7--7-------|--2--2--2--2L-2--2--2--2----|
--8--8--8--8--8--8--8-------|--0--0--0--0L-0--0--0--0----|
----------------------------|----------------------------|


--3--3--3--3L-3--3-----0----|----------------------------|
--1--1--1--1L-1--1-----0----|--8--8--8--8--8--8--8--8----|
--0--0--0--0L-0--0-----0----|--8--8--8--8--8--8--8--8----|
--2--2--2--2L-2--2-----0----|--7--7--7--7--7--7--7--7----|
--0--0--0--0L-0--0----------|--8--8--8--8--8--8--8--8----|
----------------------------|----------------------------|


----------------------------|----------------------------|
--8--8--8--8--8--8--8--0----|--6--6--6--6--6--6--6--6----|
--8--8--8--8--8--8--8--0----|--7--7--7--7--7--7--7--7----|
--7--7--7--7--7--7--7-------|--8--8--8--8--8--8--8--8----|
--8--8--8--8--8--8--8-------|--8--8--8--8--8--8--8--8----|
----------------------------|----------------------------|


----------------------------|----------------------------|
--6--6--6--6--6--6--6-------|--10----10-10-8--8--8-------|
--6--6--6--6--6--6--6--0----|--10----10-10-5--5--5-------|
--8--8--8--8--8--8--8-------|--10----10-10-x--x--x-------|
--8--8--8--8--8--8--8-------|--8-----8--8--7--7--7-------|
----------------------------|----------------------------|

                                                                     Verse
----------------------------|--------3--3L-3--3----------|----------|----|----|
--6--6--6--6--6--6--6-------|--3--3--3--3L-3--3-----0----|--3--2----|----|----|
--5--5--5--5--5--5--5--0----|--3--3--3--3L-3--3-----0----|--3--3----|----|----|
--7--7--7--7--7--7--7--0----|--3--3--3--3L-3--3-----0----|--2--2----|----|----|
--5--5--5--5--5--5--5-------|--5--5--5--5L-5--5--5-------|--3--3----|----|----|
----------------------------|--3--3--3--3L-3--3--3-------|----------|----|----|


----|----|----|----|----|----------------------------|
----|----|----|----|----|----------------------------|
----|----|----|----|----|----------------------------|
----|----|----|----|----|--14-14-14-14-12-12-12-12---|
----|----|----|----|----|--12-12-12-12-10-10-10-10---|
----|----|----|----|----|----------------------------|

Chorus
----------------------------|----------------------------|
--------10----------10------|--------8-----------8-------|
--------9--------9--9-------|--------7-----------7-------|
--10-10----10-10-10----10---|--9--9-----9--9--9----------|
--8--8-----8--8--8-----8----|--7--7-----7--7--7-----7s---|
----------------------------|----------------------------|


----------------------------|----------------------------|
--------3-----------3-------|--------10----------10------|
--------3-----------3-------|--------9-----------9-------|
--------------2--2----------|-----------10-10-10----10---|
--3--3-----3--3--3-----3----|--8s-8-----8--8--8-----8----|
----------------------------|----------------------------|


----------------------------|----------------------------|
--------9-----------9-------|--------5-----------9-------|
--------8-----------8-------|--------4-----------9-------|
--10-10----10-10-10----10---|--6--6-----6----------------|
--8--8-----8--8--8-----8----|--4--4-----4--9s-9-----9----|
----------------------------|----------------------------|


----------------------------|----------------------------|
--------10----------10------|--------10----------10------|
--------9-----------9-------|--------9-----------9-------|
--10-10----10-10-10----10---|--10-10----10-10-10---------|
--8--8-----8--8--8-----8----|--8--8-----8--8--8----------|
----------------------------|----------------------------|


----------------------------|----------------------------|
--------10----------10------|--------10----------10-0----|
--------10----------10------|--------9-----------9-------|
-----9-----9--9--9-----9----|--9--9-----9--9--9----------|
--10-10----10-10-10----10---|--10-10----10-10-10---------|
----------------------------|----------------------------|


----------------------------|----------------------------|
--------10----------10------|--------10----------10------|
--------9-----------9-------|--------9-----------9-------|
--10-10----10-10-10----10---|--10-10----10-10-10---------|
--8--8-----8--8--8-----8----|--8--8-----8--8--8----------|
----------------------------|----------------------------|


----------------------------|----------------------------|
--------10----------10------|--------10----------10------|
--------10----------10------|--------9-----------9-------|
-----9-----9--9--9-----9----|--9--9-----9--9--9----------|
--10-10----10-10-10----10---|--10-10----10-10-10---------|
----------------------------|----------------------------|


----------------------------|----------------------------|
--------10----------10------|--------10----------10------|
--------9-----------9-------|--------9-----------9-------|
--10-10----10-10-10----10---|--10-10----10-10-10---------|
--8--8-----8--8--8-----8----|--8--8-----8--8--8----------|
----------------------------|----------------------------|


----------------------------|----------------------------|
--------10----------10------|--------10----------10------|
--------10----------10------|--------9-----------9-------|
-----9-----9--9--9-----9----|--9--9-----9--9--9----------|
--10-10----10-10-10----10---|--10-10----10-10-10---------|
----------------------------|----------------------------|


----------------------------|----------------------------|
--------10----------10------|--------10----------10------|
--------9-----------9-------|--------9-----------9-------|
--10-10----10-10-10----10---|--10-10----10-10-10---------|
--8--8-----8--8--8-----8----|--8--8-----8--8--8----------|
----------------------------|----------------------------|


----------------------------|----------------------------|
--------10----------10------|--------10----------10------|
--------10----------10------|--------9-----------9-------|
-----9-----9--9--9-----9----|--9--9-----9--9--9----------|
--10-10----10-10-10----10---|--10-10----10-10-10---------|
----------------------------|----------------------------|

Outro / Trumpet Solo
----------------------------|----------------------------|
----------------------------|----------------------------|
--------12----------12------|--------12----------12------|
-----10-------10-10---------|-----10-------10-10---------|
--8-------------------------|--8-------------------------|
----------------------------|----------------------------|


----------------------------|----------------------------|
----------------------------|----------------------------|
--------12----------12------|--------12----------12------|
-----9--------9--9----------|-----9--------9--9----------|
--8-------------------------|--8-------------------------|
----------------------------|----------------------------|


----------------------------|----------------------------|
----------------------------|----------------------------|
--------12----------12------|--------12----------12------|
-----10-------10-10---------|-----10-------10-10---------|
--8-------------------------|--8-------------------------|
----------------------------|----------------------------|


----------------------------|----------------------------|
----------------------------|----------------------------|
--------12----------12------|--------12----------12------|
-----9--------9--9----------|-----9--------9--9----------|
--8-------------------------|--8-------------------------|
----------------------------|----------------------------|


----------------------------|----------------------------|
----------------------------|----------------------------|
--------12----------12------|--------12----------12------|
-----10-------10-10---------|-----10-------10-10---------|
--8-------------------------|--8-------------------------|
----------------------------|----------------------------|


----------------------------|----------------------------|
----------------------------|----------------------------|
--------12----------12------|--------12----------12------|
-----9--------9--9----------|-----9--------9--9----------|
--8-------------------------|--8-------------------------|
----------------------------|----------------------------|


----------------------------|----------------------------|
----------------------------|----------------------------|
--------12----------12------|--------12----------12------|
-----10-------10-10---------|-----10-------10-10---------|
--8-------------------------|--8-------------------------|
----------------------------|----------------------------|


----------------------------|----------------------------|-------||
----------------------------|----------------------------|-------||
--------12----------12------|--------12----------12------|--12---||
-----9--------9--9----------|-----9--------9--9----------|--10---||
--8-------------------------|--8-------------------------|--8----||
----------------------------|----------------------------|-------||



GUITAR SOLO GUITAR

   Guitar Solo
E |-----------------------------------------------------------------------------
B |-----------------------------------------------------------------------------
G |--12s14----------------------------------------------------------------------
D |-----------------------------------------------------------------------------
A |-----------------------------------------------------------------------------
E |-----------------------------------------------------------------------------


--------------------------|
--------------------------|
12h---14h---12------------|
--------------------------|
--------------------------|
--------------------------|


--------------------------------------------------------------------------------
--------------------------------------------------------------------------------
--------------------------------------------------------------------------------
--12s14----------------------------------------------12h14h---------------12L---
--------------------------------------------------------------------------------
--------------------------------------------------------------------------------


-----------------------------|
-----------------------------|
-----------------------------|
12---------------------------|
------------12h14------------|
-----------------------------|


--------------------------------------------------------------------------------
--------------------------------------------------------------------------------
-----------------------------------------------------------------14-------------
--------------------------------------------------------------------------------
--12----------10----------------------10h12L---------12-------------------------
--------------------------------------------------------------------------------


-----------------------|----------------------------------------------------|
-----------------------|-----------13L13-13h15h13---------------------------|
-----------------------|--------------------------14L-----------------------|
-----------------------|----------------------------------------------------|
-----------------------|----------------------------------------------------|
-----------------------|----------------------------------------------------|


----------------------------------------------------|
--------------------12h13h12------------------------|
--14----------------------------12h---14L-----------|
----------------------------------------------------|
----------------------------------------------------|
----------------------------------------------------|


--------------------------------------------------------------------------------
--------------------------------------------------------------------------------
--14----------------------------------------------------------------------------
--------------------------------------------------------------------------------
--------------------------------------------------------------------------------
--------------------------------------------------------------------------------


--------------------------------------------------------------------------------
------------------12h---------------------13----------------------15------------
--------------------------------------------------------------------------------
--------------------------------------------------------------------------------
--------------------------------------------------------------------------------
--------------------------------------------------------------------------------


--------------------------------------------------------------------------------
----------------------------------------------------------12h------13h----------
--------------------------------------------------------------------------------
--------------------------------------------------------------------------------
--------------------------------------------------------------------------------
--------------------------------------------------------------------------------


-------------------------------------------------------------|
-----------------------15------------------------------------|
-------------------------------------------------------------|
-------------------------------------------------------------|
-------------------------------------------------------------|
-------------------------------------------------------------|


-----------13-------11----------------11----------------------11.-----------|
-----------------------------13-------------------13------------------------|
----------------------------------------------------------------------------|
----------------------------------------------------------------------------|
----------------------------------------------------------------------------|
----------------------------------------------------------------------------|


--13L13L13b11---------------|--13-10----10L10L---10b-----|
--------------13------------|--------11------------------|
----------------------------|----------------------------|
----------------------------|----------------------------|
----------------------------|----------------------------|
----------------------------|----------------------------|


--13-------9----------------------------------------------------------------|
--------------------10------------------------------------------------------|
-----------------------------12L------12L---------------12----12----13------|
----------------------------------------------------------------------------|
----------------------------------------------------------------------------|
----------------------------------------------------------------------------|


----------------------------|----------------------------------------|
--10-------13-14-15---------|--17----------17-16h15------------------|
----------------------------|--x--------------------------14b--------|
----------------------------|--x-------------------------------------|
----------------------------|----------------------------------------|
----------------------------|----------------------------------------|


-----------13----------------------------------17---------------------------|
--15s---------------15-------13-------------------------18----15------------|
--------------------------------------------------------------------14s-----|
----------------------------------------------------------------------------|
----------------------------------------------------------------------------|
----------------------------------------------------------------------------|

                                Verse
----------------------------|-------||
----------------------------|-------||
--12L---------------12-13L--|--13---||
----------------------------|-------||
----------------------------|-------||
----------------------------|-------||



MANDOLIN

   Verse
E |--9--12----12L12-12----14---|-----15----15L15-15----15---|
B |--------14----------14------|--14----14----------14------|
G |----------------------------|----------------------------|
D |----------------------------|----------------------------|
A |----------------------------|----------------------------|
E |----------------------------|----------------------------|


-----14----14L14-14---------|-----14----14L14------------|
--15----15----------15-14---|--13----13-------13-12-11---|
----------------------------|----------------------------|
----------------------------|----------------------------|
----------------------------|----------------------------|
----------------------------|----------------------------|


-----13----13L13-13---------|-----15----15L15-15-13h12---|
--10------------------------|----------------------------|
--------14----------14-15---|--16----16------------------|
----------------------------|----------------------------|
----------------------------|----------------------------|
----------------------------|----------------------------|


-----12----12L12-12----12---|-----12----12L12-12----14---|
--13s---13----------13------|--14----14----------14------|
----------------------------|----------------------------|
----------------------------|----------------------------|
----------------------------|----------------------------|
----------------------------|----------------------------|


-----15----15L15-15----15---|-----14----14L14-14---------|
--14----14----------14------|--15----15----------15-14---|
----------------------------|----------------------------|
----------------------------|----------------------------|
----------------------------|----------------------------|
----------------------------|----------------------------|


-----14----14L14------------|-----13----13L13-13---------|
--13----13-------13-12-11---|--10------------------------|
----------------------------|--------14----------14-15---|
----------------------------|----------------------------|
----------------------------|----------------------------|
----------------------------|----------------------------|


-----15----15L15-15---------|--8--12----12L12-12---------|
--------------------15------|--------13----------13-12---|
--16----16------------------|----------------------------|
----------------------------|----------------------------|
----------------------------|----------------------------|
----------------------------|----------------------------|


-----12-------12-------12L12----12----12----12------||
--11-------11-------11-------11----11----11---------||
----------------------------------------------------||
----------------------------------------------------||
----------------------------------------------------||
----------------------------------------------------||



TRUMPET

   Chorus
E |----|----|----|----|----|----|-----------------------0----|--5L---|
B |----|----|----|----|----|----|----------------------------|-------|
G |----|----|----|----|----|----|----------------------------|-------|
D |----|----|----|----|----|----|----------------------------|-------|
A |----|----|----|----|----|----|----------------------------|-------|
E |----|----|----|----|----|----|----------------------------|-------|

                                                                 
--5-------------------------|--7-----8--10---|-------|----------|
-----------------------3----|----------------|--10L--|--10------|
----------------------------|----------------|-------|----------|
----------------------------|----------------|-------|----------|
----------------------------|----------------|-------|----------|
----------------------------|----------------|-------|----------|

                                                                      
----------------------------|--7-----8--10---|--12L--|--12L--|--12L--|
-----------------------3----|----------------|-------|-------|-------|
----------------------------|----------------|-------|-------|-------|
----------------------------|----------------|-------|-------|-------|
----------------------------|----------------|-------|-------|-------|
----------------------------|----------------|-------|-------|-------|

                                                                             
--12----------------------------------12----------13----12------------------|
-----------------------------------------------------------------13---------|
----------------------------------------------------------------------------|
----------------------------------------------------------------------------|
----------------------------------------------------------------------------|
----------------------------------------------------------------------------|

                                                      
--12L--|--12----13-15---|----------------------------|
-------|----------------|--17----------15-------13---|
-------|----------------|-----------17---------------|
-------|----------------|----------------------------|
-------|----------------|----------------------------|
-------|----------------|----------------------------|

                             
----------------------------|
--12-------10-8L------------|
----------------------------|
----------------------------|
----------------------------|
----------------------------|

Outro / Trumpet Solo                                                   
--------------------------------3--5--7-------------|
--8-------------------------------------------------|
----------------------------------------------------|
----------------------------------------------------|
----------------------------------------------------|
----------------------------------------------------|

                                                     
--------3--5--7-----------------3--5--7--8--7-------|
----------------------------------------------------|
----------------------------------------------------|
----------------------------------------------------|
----------------------------------------------------|
----------------------------------------------------|

                                                     
--------3--5--7-----------------3--5--7-------------|
----------------------------------------------------|
----------------------------------------------------|
----------------------------------------------------|
----------------------------------------------------|
----------------------------------------------------|

                                                     
--------3--5--7--8--7--5--7-----------5--7--8--10---|
----------------------------------------------------|
----------------------------------------------------|
----------------------------------------------------|
----------------------------------------------------|
----------------------------------------------------|

                                                     
--12.---12-10----10-8-----10L-----------------------|
----------------------------------------------------|
----------------------------------------------------|
----------------------------------------------------|
----------------------------------------------------|
----------------------------------------------------|

                                                     
--10----------------------------------3--5--7--8----|
----------------------------------------------------|
----------------------------------------------------|
----------------------------------------------------|
----------------------------------------------------|
----------------------------------------------------|

                                                          =       =       =
--12.---12-10----10-8--15---------------------------|----------|-------|-------|
--------------------------17L-----------------------|--17-15---|--15---|--15---|
----------------------------------------------------|----------|-------|-------|
----------------------------------------------------|----------|-------|-------|
----------------------------------------------------|----------|-------|-------|
----------------------------------------------------|----------|-------|-------|


-----------------------19----15----13----12----10---|
--15------------------------------------------------|
----------------------------------------------------|
----------------------------------------------------|
----------------------------------------------------|
----------------------------------------------------|


-----8-----7-----5-----3-----0-----------0--3--5----|
-----------------------------------3----------------|
----------------------------------------------------|
----------------------------------------------------|
----------------------------------------------------|
----------------------------------------------------|


--3-----------------------------------------------------------------0--3----|
-----------------------------------------------------------------3----------|
----------------------------------------------------------------------------|
----------------------------------------------------------------------------|
----------------------------------------------------------------------------|
----------------------------------------------------------------------------|


--5--------7--------8--------10-------12.---------------10-------10-------8-----
--------------------------------------------------------------------------------
--------------------------------------------------------------------------------
--------------------------------------------------------------------------------
--------------------------------------------------------------------------------
--------------------------------------------------------------------------------


7-----5-----3-------------------------------------------------------|
--------------------------------------------------------------------|
--------------------------------------------------------------------|
--------------------------------------------------------------------|
--------------------------------------------------------------------|
--------------------------------------------------------------------|


--------------------------------------0.----------------5--------7L-------7L----
--------------------------------------------------------------------------------
--------------------------------------------------------------------------------
--------------------------------------------------------------------------------
--------------------------------------------------------------------------------
--------------------------------------------------------------------------------


------------------------------7-----------5-----------7-------------|
--------------------------------------------------------------------|
--------------------------------------------------------------------|
--------------------------------------------------------------------|
--------------------------------------------------------------------|
--------------------------------------------------------------------|


--8-----------------------------------10----------------------------------12----
--------------------------------------------------------------------------------
--------------------------------------------------------------------------------
--------------------------------------------------------------------------------
--------------------------------------------------------------------------------
--------------------------------------------------------------------------------


------------------------------10-------11----------------------------------10---
--------------------------------------------------------------------------------
--------------------------------------------------------------------------------
--------------------------------------------------------------------------------
--------------------------------------------------------------------------------
--------------------------------------------------------------------------------


-------------------------------8-----------------------------------7------------
--------------------------------------------------------------------------------
--------------------------------------------------------------------------------
--------------------------------------------------------------------------------
--------------------------------------------------------------------------------
--------------------------------------------------------------------------------


-----------------------5-----------------------------------------3--------------
--------------------------------------------------------------------------------
--------------------------------------------------------------------------------
--------------------------------------------------------------------------------
--------------------------------------------------------------------------------
--------------------------------------------------------------------------------


---------------------------5----------------------------------------------------
---------------------------------------------------------------------5----------
--------------------------------------------------------------------------------
--------------------------------------------------------------------------------
--------------------------------------------------------------------------------
--------------------------------------------------------------------------------


-------------------------------------------------------------------------3------
-------------------------------3------------------------------------------------
--------------------------------------------------------------------------------
--------------------------------------------------------------------------------
--------------------------------------------------------------------------------
--------------------------------------------------------------------------------


-------------------------------------|--0----||
-------------------------------------|-------||
-------------------------------------|-------||
-------------------------------------|-------||
-------------------------------------|-------||
-------------------------------------|-------||
            
Submit corrections

↑ Back to top | Yellowcard Tabs for Two Weeks From Twenty. Lyrics for acoustic guitar and electric guitar. Tablatures and chords are parodies/interpretations of the original songs. You may use it for private study, scholarship, research or language learning purposes only