>
 >
Surface Of The Sun

Surface Of The Sun Guitar Tabs

Yellowcard - Surface Of The Sun chords, tabs, tablatures, lyrics

Guitar lessons | Add/correct | Request | Top 50 tabs Artists:  A B C D E F G H I J K L M N O P Q R S T U V W X Y Z 0-9

Surface Of The Sun Guitar Tabs – Yellowcard

CD, Sheet music, Poster

Do you like Surface Of The Sun? Share with your friends now
ChordsTabs
Tuning: Drop D.

Intro:

e|----------------------------------------------------------------------------------|
B|----------------------------------------------------------------------------------|
G|--------12--12-12-12-12--12-12-12-------------------------------------------------|
D|-0-2-0--12--12-12-12-12--12-12-12--0-2-0--7-77-77--7777---------------------------|
A|-0-2-0--10--10-10-10-10--10-10-10--0-2-0--0-00-00--0000---------------------------|
D|-0-2----10--10-10-10-10--10-10-10--0-2----0-00-00--0000---------------------------|

e|--------------------------------------------------------------------------------|
B|--------------------------------------------------------------------------------|
G|------------12-12-12-12--12-12-12-----------------------------------------------|
D|-0-2-0--12--12-12-12-12--12-12-12--0-2-0--7-77-77--7777-------------------------|
A|-0-2-0--10--10-10-10-10--10-10-10--0-2-0--0-00-00--0000------------------|
D|-0-2----10--10-10-10-10--10-10-10--0-2----0-00-00--0000-------------------------|

Verse 1: 'This is a story...'

e|------------------------------------------------------------------------|
B|------------------------------------------------------------------------|
G|-12 12 12 12 12 12 12 12 12 12 12 12 12 12 12 12--12 12 12-12 12 12 12 -|
D|-x--x--x-x--x--x-x--x--x--x-x--x--x-x--x--x----9---9--9--9--9--9--9--9--|
A|-10 10 10 10 10 10 10 10 10 10 10 10 10 10 10 10--10 10 10 10 10 10 10 -|
D|------------------------------------------------------------------------|

e|-------------------------------------------------------------------------------------|
B|-------------------------------------------------------------------------------------|
G|-12 12 12 12 12 12 12 12-------------------------------------------------------------|
D|--x-x--x--x--x--x--x--x-----X2-------------------------------------------------------|
A|-9--9--9--9- 9- 9--9--9--------------------------------------------------------------|
D|-------------------------------12/---------------------------------------------------|

e|--------------------------------------------------------------------------|
B|--------------------------------------------------------------------------|
G|--------------------77777777----------------------------------------------|
D|--55-555-555-55555--77777777-77777777-----X2------------------------------|
A|--22-222-222-22222--55555555-00000000-------------------------------------|
D|--22-222-222-22222--55555555-00000000-------------------------------------|

Chorus:

'We were born...'

e|--------------------------------------------------------------------------------------|
B|----------------------------------3-------------3-------------------------------------|
G|------0-----0------0------0--------------0------------0------------------0------0-----|
D|--------------------------------------------------------------4-----4-----------------|
A|----------------------2-2----3-3----3-3----3-3----3-3---------------------------------|
D|--2-2---2-2---2-2----------------------------------------5-5---5-5---5-5---5-5--------|

2nd 'We were born...'

e|--------------------------------------------------------------------------------------|
B|--------------------------------------------------------------------------------------|
G|------4-----------4------------5-----------5------------7-----------7-----------------|
D|------------5------------5-----------5------------5-----------5------------5----------|
A|---------------------2-2---3-3---3-3---3-3---3-3--------------------------------------|
D|--2-2---2-2---2-2-----------------------------------5-5---5-5---5-5---5-5----5-5------|

Cont... 'It burns like...'                            ↓ Comes in at the same time as '0'.

e|-----------------------------/--------------------------------------------------------|
B|-----------------------------/--------------------------------------------------------|
G|-----------------------------/--11 11 11 11 11 11 11 11 11 11 11 11 11 11 11 11-------|
D|-----------------------------/--x--x--x--x-x--x-x--x--x-x--x--x--x-x--x--x-x--x-------|
A|-----------------------------/--9--9--9--9-9--9-9--9--9-9--9--9-9-9---9-9--9--9-------|
D|-000000000000000000000000--/----------------------------------------------------------|

Intro ('Suuuuuuun!'):

e|----------------------------------------------------------------------------------|
B|----------------------------------------------------------------------------------|
G|--------12--12-12-12-12--12-12-12-------------------------------------------------|
D|-0-2-0--12--12-12-12-12--12-12-12--0-2-0--7-77-77--7777---------------------------|
A|-0-2-0--10--10-10-10-10--10-10-10--0-2-0--0-00-00--0000---------------------------|
D|-0-2----10--10-10-10-10--10-10-10--0-2----0-00-00--0000---------------------------|

e|----------------------------------------------------------------------------------|
B|----------------------------------------------------------------------------------|
G|--------12--12-12-12-12--12-12-12-------------------------------------------------|
D|-0-2-0--12--12-12-12-12--12-12-12--0-2-0--7-77-77--7777---------------------------|
A|-0-2-0--10--10-10-10-10--10-10-10--0-2-0--0-00-00--0000---------------------------|
D|-0-2----10--10-10-10-10--10-10-10--0-2----0-00-00--0000---------------------------|

Verse 2: 'Here in this angel city...'

e|------------------------------------------------------------------------|
B|------------------------------------------------------------------------|
G|-12 12 12 12 12 12 12 12 12 12 12 12 12 12 12 12--12 12 12-12 12 12 12 -|
D|-x--x--x-x--x--x-x--x--x--x-x--x--x-x--x--x----9---9--9--9--9--9--9--9--|
A|-10 10 10 10 10 10 10 10 10 10 10 10 10 10 10 10--10 10 10 10 10 10 10 -|
D|------------------------------------------------------------------------|

e|-------------------------------------------------------------------------------------|
B|-------------------------------------------------------------------------------------|
G|-12 12 12 12 12 12 12 12-------------------------------------------------------------|
D|--x-x--x--x--x--x--x--x-----X2-------------------------------------------------------|
A|-9--9--9--9- 9- 9--9--9--------------------------------------------------------------|
D|-------------------------------12/---------------------------------------------------|

'But now we know...'

e|---------------------------------------------------------------------------------|
B|---------------------------------------------------------------------------------|
G|--------------------77777777-77777777--------------------------------------------|
D|--55-55--555-55555--77777777-77777777-----X2-------------------------------------|
A|--22-222-222-22222--55555555-00000000--------------------------------------------|
D|--22-222-222-22222--55555555-00000000--------------------------------------------|

'Woah!'

e| ----------------------------------------------------------------------|I
B|-----------------------------------------------------------------------|I
G|- 10 10 10 10 10 10 10 10 10 10 10 10 10 10 10 10----------------------|
D|- 10 10 10 10 10 10 10 10 10 10 10 10 10 10 10 10----------------------|
A|- 12 12 12 12 12 12 12 12 12 12 12 12 12 12 12 12----------------------|
D|- 12 12 12 12 12 12 12 12 12 12 12 12 12 12 12 12----------------------|

Chorus:

'We were born...'

e|-------------------------------------------------------------------------------------|
B|----------------------------------3-------------3------------------------------------|
G|------0-----0------0------0--------------0------------0------------------0------0----|
D|--------------------------------------------------------------4-----4----------------|
A|----------------------2-2----3-3----3-3----3-3----3-3--------------------------------|
D|--2-2---2-2---2-2----------------------------------------5-5---5-5---5-5---5-5-------|

2nd 'We were born...'

e|--------------------------------------------------------------------------------------|
B|--------------------------------------------------------------------------------------|
G|------4-----------4------------5-----------5------------7-----------7-----------------|
D|------------5------------5-----------5------------5-----------5------------5----------|
A|---------------------2-2---3-3---3-3---3-3---3-3--------------------------------------|
D|--2-2---2-2---2-2-----------------------------------5-5---5-5---5-5---5-5----5-5------|

Cont... 'It burns like...'

e|---------------------------------------------------------------|
B|---------------------------------------------------------------|
G|---------------------------------------------------------------|
D|---------------------------------------------------------------|
A|---------------------------------------------------------------|
D|--0000000000000000-----*Pick Slide*----------------------------|

'Suface of the suuuuuuuuuuuuuuun...'

e|-----------------------------------------------------------------------------------|
B|-----------------------------------------------------------------------------------|
G|--------------------------------------7777777777777777-----------------------------|
D|--5555555555555--555-5555555555555555-7777777777777777-7777777777777777------------|
A|--2222222222222--222-3333333333333333-5555555555555555-0000000000000000------------|
D|--2222222222222-----------------------5555555555555555-0000000000000000------------|

'To show the faithless...'

e|-----------------------------------------------------------------------------------|
B|-----------------------------------------------------------------------------------|
G|--------------------------------------7777777777777777-----------------------------|
D|--5555555555555--555-5555555555555555-7777777777777777-7777777777777777------------|
A|--2222222222222--222-3333333333333333-5555555555555555-0000000000000000------------|
D|--2222222222222-----------------------5555555555555555-0000000000000000------------|

Tiny break for violin and drums.

e|---------------------------------------------------------------------------|
B|---------------------------------------------------------------------------|
G|-------------------------77777777------------------------------------------|
D|-------555555555555------77777777-77777777---------------------------------|
A|-------222222222222-5555-55555555-00000000---------------------------------|
D|--12/--222222222222-4444-55555555-00000000---------------------------------|

Second break for violin and drums.

e|---------------------------------------------------------------------------|
B|---------------------------------------------------------------------------|
G|-------------------------77777777------------------------------------------|
D|-------555555555555------77777777-77777777---------------------------------|
A|-------222222222222-5555-55555555-00000000---------------------------------|
D|--12/--222222222222-4444-55555555-00000000---------------------------------|

Interlude: 'Another million miles...'

e|---------------------------------------------------------------------------------------|
B|---------------------------------------------------------------------------------------|
G|--12 12 12 12 12 12 12 12 12 12 12 12 12 12 12 12--------------------------------------|
D|--12 12 12 12 12 12 12 12 12 12 12 12 12 12 12 12--777777777777 0-2-0------------------|
A|--10 10 10 10 10 10 10 10 10 10 10 10 10 10 10 10--000000000000 0-2-0------------------|
Dl--10 10 10 10 10 10 10 10 10 10 10 10 10 10 10 10--000000000000-0-2--------------------|

'Not over yet...'

e|--------------------------------------------------------------------------------|
B|--------------------------------------------------------------------------------|
G|--12 12 12 12 12 12 12 12 12 12 12 12 ------------------------------------------|
D|--12 12 12 12 12 12 12 12 12 12 12 12 0-2-0--7777777777777777-------------------|
A|--10 10 10 10 10 10 10 10 10 10 10 10 0-2-0--0000000000000000-------------------|
Dl--10 10 10 10 10 10 10 10 10 10 10 10-0-2----0000000000000000-------------------|


Chorus: 'We were born...'

e|-------------------------------------------------------------------------------------|
B|----------------------------------3-------------3------------------------------------|
G|------0-----0------0------0--------------0------------0------------------0------0----|
D|--------------------------------------------------------------4-----4----------------|
A|----------------------2-2----3-3----3-3----3-3----3-3--------------------------------|
D|--2-2---2-2---2-2----------------------------------------5-5---5-5---5-5---5-5-------|

'We were born to be...'

e|-----------------------------------------------------------------------------------|
B|-----------------------------------------------------------------------------------|
G|--------------------------------------7777777777777777-----------------------------|
D|--5555555555555--555-5555555555555555-7777777777777777-7777777777777777------------|
A|--2222222222222--222-3333333333333333-5555555555555555-0000000000000000------------|
D|--2222222222222-----------------------5555555555555555-0000000000000000------------|


'We were born to be the ooooooooooooones!'

e|-----------------------------------------------------------------------------------|
B|-----------------------------------------------------------------------------------|
G|--------------------------------------7777777777777777-----------------------------|
D|--5555555555555--555-5555555555555555-7777777777777777-7777777777777777------------|
A|--2222222222222--222-3333333333333333-5555555555555555-0000000000000000------------|
D|--2222222222222-----------------------5555555555555555-0000000000000000------------|

'And burn like the surface of the suuuuuuuuuuun!'

e|-----------------------------------------------------------------------------------|
B|-----------------------------------------------------------------------------------|
G|--------------------------------------7777777777777777-----------------------------|
D|--5555555555555--555-5555555555555555-7777777777777777-7777777777777777------------|
A|--2222222222222--222-3333333333333333-5555555555555555-0000000000000000------------|
D|--2222222222222-----------------------5555555555555555-0000000000000000------------|

Outro:

e|----------------------------------------------------------------------------------|
B|----------------------------------------------------------------------------------|
G|--------12--12-12-12-12--12-12-12-------------------------------------------------|
D|-0-2-0--12--12-12-12-12--12-12-12--0-2-0--7-77-77--7777---------------------------|
A|-0-2-0--10--10-10-10-10--10-10-10--0-2-0--0-00-00--0000---------------------------|
D|-0-2----10--10-10-10-10--10-10-10--0-2----0-00-00--0000---------------------------|

e|-------------------------------------------------------------------------------------|
B|-------------------------------------------------------------------------------------|
G|--------12--12-12-12-12--12-12-12----------------------------------------------------|
D|-0-2-0--12--12-12-12-12--12-12-12--0-2-7-7~~~~~~-------------------------------------|
A|-0-2-0--10--10-10-10-10--10-10-10--0-2-0-0~~~~~~-Let ring.---------------------------|
D|-0-2----10--10-10-10-10--10-10-10--0-2-0-0~~~~~~-------------------------------------|

Thanks. Enjoy!





Comments


Popular Yellowcard tabs & chords
Ocean Avenue 2 Bass Tabs
Way Away 2 Bass Tabs
Lights And Sounds Chords
You And Me And One Spotlight Chords
Cut Me, Mick Tabs
Holly Wood Died 4 Tabs
Only One 4 Tabs
Paper Walls 1 Tabs
Sureshot Tabs
Two Weeks From Twenty 4 Tabs


Song lyrics



↑ Back to top | Tablatures and chords are parodies/interpretations of the original songs. You may use it for private study, scholarship, research or language learning purposes only
© 2014 AZChords.com Contact us | Privacy policy | DMCA | Add/correct tabs | Request tabs | Top 50 tabs