>
 >
See Me Smiling

See Me Smiling Guitar Tabs

Yellowcard - See Me Smiling chords, tabs, tablatures, lyrics

Guitar lessons | Add/correct | Request | Top 50 tabs Artists:  A B C D E F G H I J K L M N O P Q R S T U V W X Y Z 0-9

See Me Smiling Guitar Tabs – Yellowcard

CD, Sheet music, Poster

Do you like See Me Smiling? Share with your friends now
ChordsTabsUkulele
-------------------------------------------------------------------------------
                                                  Yellowcard - See Me Smiling
-------------------------------------------------------------------------------

Track 3 from the album "When You're Through Thinking, Say Yes."

not close to 100% accurate, but it sounds pretty close and pretty good. I definitely mixed 
up some of the guitar parts together in this, especially near the end. Hopefully someone 
will make a better version, but I thought I'd get it out there since I know I was frustrated 
when I couldn't find a tab for this awesome song.


Tuning: D A D G b e (Drop D)

1st Guitar

INTRO:

e|---------------------------------------------------------------------------------|
B|---------------------------------------------------------------------------------|
G|-11---11-----12---14---14-----16---16--------------------------------------------|
D|----0----0-0----0----0----0-0----0----0------------------------------------------|x5
A|---------------------------------------------------------------------------------|
D|---------------------------------------------------------------------------------|

e|---------------------------------------------------------------------------------|
B|---------------------------------------------------------------------------------|
G|-12---12-----14---16---16-----19----19-------------------------------------------|
D|----0----0-0----0----0----0-0----17----17----------------------------------------|
A|---------------------------------------------------------------------------------|
D|---------------------------------------------------------------------------------|

INTRO Pt. II:

e|-12-12-12-12-----------------------------------10-10-10-10-----------------------|
B|-------------8-8-8-10-10-10-10-10-12-12-12-12--------------7-8-8-10-10-10-10-8-8-|
G|---------------------------------------------------------------------------------|
D|---------------------------------------------------------------------------------|
A|---------------------------------------------------------------------------------|
D|---------------------------------------------------------------------------------|

e|------12-12-12-12----------------------------------------------------------------|
B|-8-8---------------8-8-8-10-10-10-10-10-12-12-12-12--8---8-----10---8---8-----10-|
G|-------------------------------------------------------0---0-0----0---0---0-0----|
D|---------------------------------------------------------------------------------|
A|---------------------------------------------------------------------------------|
D|---------------------------------------------------------------------------------|

e|---------------------------------------------------------------------------------|
B|-8-7-----------------------------------------------------------------------------|
G|-----7---------------------------------------------------------------------------|
D|---------------------------------------------------------------------------------|
A|---------------------------------------------------------------------------------|
D|---------------------------------------------------------------------------------|


VERSE:

e|---------------------------------------------------------------------------------|
B|---------------------------------------------------------------------------------|
G|---------------------------------------------------------------------------------|
D|-2222--444-5555--000-2222--444-5555--000--2222-2222-2222-4444-5555-5555-5555-0000|
A|-2222--444-5555--000-2222--444-5555--000--2222-2222-2222-4444-5555-5555-5555-0000|
D|-2222--444-5555--000-2222--444-5555--000--2222-2222-2222-4444-5555-5555-5555-0000|
   ...   ..  ...   ..  ...   ..  ...   ..   ...  ...  ...  ...  ...  ...  ...  ...      
e|---------------------------------------------------------------------------------|
B|---------------------------------------------------------------------------------|
G|---------------------------------------------------------------------------------|
D|-2222-2222-2222-2222-5555-5555-77777---------------------------------------------|
A|-2222-2222-2222-2222-5555-5555-77777---------------------------------------------|
D|-2222-2222-2222-2222-5555-5555-77777---------------------------------------------|
   ...  ...  ...  ...  ...  ...

CHORUS:

e|---------------------------------------------------------------------------------|
B|---------------------------------------------------------------------------------|
G|---------------------55555555-77777777---------------------55555555-77777777-----|
D|-22222-000-22222-000-55555555-77777777-22222-000-22222-000-55555555-77777777-----|
A|-22222-000-22222-000-33333333-55555555-22222-000-22222-000-33333333-55555555-----|
D|-22222-000-22222-000-------------------22222-000-22222-000-----------------------|

e|---------------------------------------------------------------------------------|
B|---------------------------------------------------------------------------------|
G|-55555555---------------------------55555555-77777-------------------------------|
D|-55555555-00000000-2222222222222444-55555555-77777-------------------------------|
A|-33333333-00000000-2222222222222444-33333333-55555-------------------------------|
D|----------00000000-2222222222222444----------------------------------------------|


INTRO:

e|---------------------------------------------------------------------------------|
B|---------------------------------------------------------------------------------|
G|-11---11-----12---14---14-----16---16--------------------------------------------|
D|----0----0-0----0----0----0-0----0----0------------------------------------------|x2
A|---------------------------------------------------------------------------------|
D|---------------------------------------------------------------------------------|


INTRO Pt. II:

e|-12-12-12-12---------------------------------------------------------------------|
B|-------------8-8-8-10-10-10-10-10-12-12-12-12--8---8-----10---8---8-----10-8-7---|
G|-------------------------------------------------0---0-0----0---0---0-0--------7-|
D|---------------------------------------------------------------------------------|
A|---------------------------------------------------------------------------------|
D|---------------------------------------------------------------------------------|


VERSE:

e|---------------------------------------------------------------------------------|
B|---------------------------------------------------------------------------------|
G|---------------------------------------------------------------------------------|
D|-2222--444-5555--000-2222--444-5555--000--222-2-222-2444-555-5-555-5550-222-2-222|
A|-2222--444-5555--000-2222--444-5555--000--222-2-222-2444-555-5-555-5550-222-2-222|
D|-2222--444-5555--000-2222--444-5555--000--222-2-222-2444-555-5-555-5550-222-2-222|
   ...   ..  ...   ..  ...   ..  ...   ..   ..  . ... ...  ..  . ... ...  ..  . ...     
e|---------------------------------------------------------------------------------|
B|------------------------8-7------------------------------------------------------|
G|--------------------7------------------------------------------------------------|
D|-2444-555-5-5777777---0----------------------------------------------------------|
A|-2444-555-5-5777777--------------------------------------------------------------|
D|-2444-555-5-5777777--------------------------------------------------------------|
   ...  ..  .                                                                  

CHORUS:

e|---------------------------------------------------------------------------------|
B|---------------------------------------------------------------------------------|
G|---------------------55555555-77777777---------------------55555555-77777777-----|
D|-22222-000-22222-000-55555555-77777777-22222-000-22222-000-55555555-77777777-----|
A|-22222-000-22222-000-33333333-55555555-22222-000-22222-000-33333333-55555555-----|
D|-22222-000-22222-000-------------------22222-000-22222-000-----------------------|

e|---------------------------------------------------------------------------------|
B|---------------------------------------------------------------------------------|
G|-55555555---------------------------55555555-7777777-----------------------------|
D|-55555555-00000000-2222222222222444-55555555-7777777-2222222222222222------------|
A|-33333333-00000000-2222222222222444-33333333-5555555-2222222222222222------------|
D|----------00000000-2222222222222444------------------2222222222222222------------|


BRIDGE: 

e|---------------------------------------------------------------------------------|
B|---3-------3-------3-------3-------3-------3-------3-------3---------------------|
G|-------0-------0-------0-------0-------0-------0-------0-------0-----------------|
D|-5---5---5---5---5---5---5---5---0---0---0---0---0---0---0---0-------------------|x5
A|---------------------------------------------------------------------------------|
D|---------------------------------------------------------------------------------|


e|-------3-------3-------3-------3-------3-------3-------3-------3-----------------|
B|---3-------3-------3-------3-------3-------3-------3-------3---------------------|
G|-0---0---0---0---0---0---0---0---0---0---0---0---0---0---0---0-------------------|
D|---------------------------------------------------------------------------------|x2
A|---------------------------------------------------------------------------------|
D|---------------------------------------------------------------------------------|


CHORUS:

e|---------------------------------------------------------------------------------|
B|---------------------------------------------------------------------------------|
G|---------------------55555555-77777777---------------------55555555-77777777-----|
D|-22222-000-22222-000-55555555-77777777-22222-000-22222-000-55555555-77777777-----|
A|-22222-000-22222-000-33333333-55555555-22222-000-22222-000-33333333-55555555-----|
D|-22222-000-22222-000-------------------22222-000-22222-000-----------------------|
   ..... ... ..... ...
e|---------------------------------------------------------------------------------|
B|---------------------------------------------------------------------------------|
G|-55555555---------------------------55555555-7777777------------------55555555---|
D|-55555555-00000000-2222222222222444-55555555-7777777-2222222222222444-55555555---|
A|-33333333-00000000-2222222222222444-33333333-5555555-2222222222222444-33333333---|
D|----------00000000-2222222222222444------------------2222222222222444------------|

e|---------------------------------------------------------------------------------|
B|---------------------------------------------------------------------------------|
G|-77777---------------------------------------------------------------------------|
D|-77777---------------------------------------------------------------------------|
A|-55555---------------------------------------------------------------------------|
D|---------------------------------------------------------------------------------|

OUTRO:

e|-12-12-12-12-----------------------------------10-10-10-10-----------------------|
B|-------------8-8-8-10-10-10-10-10-12-12-12-12--------------7-8-8-10-10-10-10-8-8-|
G|---------------------------------------------------------------------------------|
D|---------------------------------------------------------------------------------|
A|---------------------------------------------------------------------------------|
D|---------------------------------------------------------------------------------|

e|------12-12-12-12----------------------------------------------------------------|
B|-8-8---------------8-8-8-10-10-10-10-10-12-12-12-12--8---8-----10---8---8-----10-|
G|-------------------------------------------------------0---0-0----0---0---0-0----|
D|---------------------------------------------------------------------------------|
A|---------------------------------------------------------------------------------|
D|---------------------------------------------------------------------------------|

e|--------12-12-12-12-----12-10----------------------------------------------------|
B|-8-7----------------8-8----------------------------------------------------------|
G|-----7---------------------------------------------------------------------------|
D|---------------------------------------------------------------------------------|
A|---------------------------------------------------------------------------------|
D|---------------------------------------------------------------------------------|

e|---------------------------------------------------------------------------------|
B|-8---8-----10---12---12-----15----15---------------------------------------------|
G|---0---0-0----0----0----0-0----11----11-12---------------------------------------|
D|---------------------------------------------------------------------------------|
A|---------------------------------------------------------------------------------|
D|---------------------------------------------------------------------------------|


************************************

| /   slide up
| \   slide down
| h   hammer-on
| p   pull-off
| ~   vibrato
| +   harmonic
| x   Mute note
| b   Bend
| pb  Pre-bend
| br  Bend release
| pbr Pre-bend release
| brb Bend release bend

************************************





Comments


Popular Yellowcard tabs & chords
Avondale 1 Bass Tabs
Empty Apartment 4 Bass Tabs
Keeper Bass Tabs
Gifts And Curses Chords
Takedown Chords
Twenty Three Chords
View From Heaven 1 Chords
Words Hands Hearts 1 Chords
Down On My Head 1 Tabs
Rivertown Tabs


Song lyrics



↑ Back to top | Tablatures and chords are parodies/interpretations of the original songs. You may use it for private study, scholarship, research or language learning purposes only
© 2014 AZChords.com Contact us | Privacy policy | DMCA | Add/correct tabs | Request tabs | Top 50 tabs