» » »

Yellowcard, October Nights Tabs (ver.3)

Artists:  A B C D E F G H I J K L M N O P Q R S T U V W X Y Z # 

October Nights Tabs (ver.3)

Yellowcard Tabs
 Rating:
4/5 (4 votes)
October Nights lessons Tabs too difficult? Try these video lessons and learn fast
                "October Nights" - Yellowcard

Intro (I don't think its right but it goes something like this I think)
Just mess around with it.
e:---------------------------------------------------------------
B:---------------------------------------------------------------
G:---------------------------------------------------------------
D:--0-7h9-7--7h9-7-0-7h9-7-0-0-------------------------------------
A:---------------------------------------------------------------
E:---------------------------------------------------------------

Verse (Warm...)     Mid Verse (All I know..)
e:---------------------------------------------------------------
B:---------------------------------------------------------------
G:--4-6-7-----------4---4----------------------------------------
D:--4-6-7-----------4-2-4-2--------------------------------------
A:--2-4-5-----------2-2-2-2--------------------------------------
E:--------------------0---0--------------------------------------

Chorus (Palm Mute the G chord a few times in the chorus)
e:---------------------------------------------------------------
B:---------------------------------------------------------------
G:----7-----------------------------------------------------------
D:--5-7------------------------------------------------------------
A:--5-5------------------------------------------------------------
E:--3-------------------------------------------------------------

After Chorus
e:---------------------------------------------------------------
B:---------------------------------------------------------------
G:--4-4-6-6-7-7-----------------------------------------------------------
D:--4-4-6-6-7-7-----------------------------------------------------------
A:--2-2-4-4-5-5-----------------------------------------------------------
E:---------------------------------------------------------------

I don't know the bridge or the lead parts but I'm decently sure 
everything on here is right except the intro.
            
Submit corrections

comments powered by Disqus
↑ Back to top | Yellowcard Tabs for October Nights. Lyrics for acoustic guitar and electric guitar. Tablatures and chords are parodies/interpretations of the original songs. You may use it for private study, scholarship, research or language learning purposes only