» » »

Yellowcard, For You And Your Denial Tabs (ver.1)

Artists:  A B C D E F G H I J K L M N O P Q R S T U V W X Y Z # 

For You And Your Denial Tabs (ver.1)

Yellowcard Tabs
 Rating:
4/5 (4 votes)
For You And Your Denial lessons Tabs too difficult? Try these video lessons and learn fast
                -------------------------------------------------------------------------------
-------------------------------------------------------------------------------

This is the first song of Yellowcard's new album "When You're Through Thinking, Say
Yes". I've tabbed it according to the live version, due to the fact that the studio version
isn't published yet. I know it isn't 100% accurate and I missed some guitar parts but it 
sound nice for me. If you want you can use this as a base to create a more accurate
version, credits would be nice then :) . Please leave a comment or correction.


Tuning: Standard

Intro:
e|------------------|
B|------------------|
G|-----7------------|
D|-9---7---7---5----|
A|-9---5---7---5----|
E|-7-------5---3----|

Verse I:
e|---------------------------------|
B|---------------------------------|
G|-----7------------------7--------|
D|-9---7---7---5------9---7---7---5|
A|-9---5---7---5------9---5---7---5|
E|-7-------5---3------7-------5---3|

Chorus:
e|---------------------------------------|
B|---------------------------------------|
G|-----7---------------------7-----------|
D|-9---7---5---9--7------9---7---5---9--7|
A|-9---5---5---9--7------9---5---5---9--7|
E|-7-------3---7--5------7-------3---7--5|

Repeat Intro:
e|------------------|
B|------------------|
G|-----7------------|
D|-9---7---7---5----|
A|-9---5---7---5----|
E|-7-------5---3----|

Verse II:
e|-------------------------------------|
B|-------------------------------------|
G|-----7------------------7------------|
D|-9---7---7---5------9---7---7---5---7|
A|-9---5---7---5------9---5---7---5---7|
E|-7-------5---3------7-------5---3---5|

Chorus:
e|---------------------------------------------|
B|---------------------------------------------|
G|-----7---------------------7-----------------|
D|-9---7---5---9--7------9---7---5---9--7--5--7|
A|-9---5---5---9--7------9---5---5---9--7--5--7|
E|-7-------3---7--5------7-------3---7--5--3--5|

Bridge
e|------------------------------------------|
B|------------------------------------------|
G|------------------------------------------| x2
D|---------------------------------------5--|
A|-----------------------------9-9-9-9---5--|
E|-7-7-7-7-9-9-9-9-10-10-10-10-----------3--|


e|-------------------------------X-|
B|-------------------------------X-|
G|--------12---7-------7---9-----X-|
D|---12---12---7---5---7---9---5-X-|
A|---12---10---5---5---5---7---5-X-|
E|---10------------3-----------3-X-|

____________________________________
Solo (played by Violin):
e|------------------------|
B|------------------------|
G|------------------------|
D|-12---------------9--11-| x3
A|----12--9----9----------|
E|----------10---10-------|


e|------------------------------|
B|------------------------------|
G|------------------------------|
D|-12-----------12----------11--|
A|--------9-----------9---------|
E|-----10---10-----10---10------|

During Violin background guitar:
e|------------------------------|
B|------------------------------|
G|---------------5--------------|
D|-9-------------5-------------5|
A|-9-------------7-------------5|
E|-7---------------------------3|
_________________________________
"I'm letting you go now..."
e|--------------|
B|--------------|
G|-----7--------|
D|-9---7---7---5|
A|-9---5---7---5|
E|-7-------5---3|

Chorus:
e|--------------------------------------|
B|--------------------------------------|
G|-----7----------7---------------7-----|
D|-9---7---5---9--7--7--5-----9---7---5-|
A|-9---5---5---9--5--7--5-----9---5---5-|
E|-7-------3---7-----5--3-----7-------3-|

e|------------|
B|------------|
G|-----7------|  x4
D|--9--7--7--5|
A|--9--5--7--5|
E|--7-----5--3|

e|---|
B|---|
G|---|
D|-5-|
A|-5-|
E|-3-|



************************************

| /   slide up
| \   slide down
| h   hammer-on
| p   pull-off
| ~   vibrato
| +   harmonic
| x   Mute note
| b   Bend
| pb  Pre-bend
| br  Bend release
| pbr Pre-bend release
| brb Bend release bend

************************************

Lyrics:
Verse I:
It's 4am, you call to spit some fire out
But did you think that I would listen to you now?
It's nothing new so get in line with all the rest
And I will wait 'till you realize you're out of breath

Chorus:
Can you hear the crowd? They all go wild
For you and your denial
They're watching you break down
Hate me all you want -- I'll be okay
I'm half the world away
I'm letting you go now

Verse II:
You've got sadness twisted up with jealousy
You show your fists to make them look like loyalty
And I have seen what holding on can take away
If it's the past you love then that's where you can stay

Chorus:
Can you hear the crowd? They all go wild
For you and your denial
They're watching you break down
Hate me all you want -- I'll be okay
I'm half the world away
I'm letting you go now

Bridge:
Desperation kills
But when it's on your sleeve you wear it well
Underneath it all you'll always have this war inside yourself

Chorus:
I'm letting you go now
Can you hear the crowd? They all go wild
For you and your denial
They're watching you break down
Hate me all you want -- I'll be okay
I'm half the world away
I'm letting you go now
            
Submit corrections

comments powered by Disqus
↑ Back to top | Yellowcard Tabs for For You And Your Denial. Lyrics for acoustic guitar and electric guitar. Tablatures and chords are parodies/interpretations of the original songs. You may use it for private study, scholarship, research or language learning purposes only