>
 >
For Pete's Sake

For Pete's Sake Guitar Tabs

Yellowcard - For Pete's Sake chords, tabs, tablatures, lyrics

Guitar lessons | Add/correct | Request | Top 50 tabs Artists:  A B C D E F G H I J K L M N O P Q R S T U V W X Y Z 0-9

For Pete's Sake Guitar Tabs – Yellowcard

CD, Sheet music, Poster

Do you like For Pete's Sake? Share with your friends now
TabsTabs v2
The intro is a little off, 
but thats the closest i could get.

INTRO
Guitar 1 (clean)
e:--------5---------------5---------------5---------------5------
B:----5-----5---5-----5-----5---5-----5-----5---5-----5-----5---5
G:--6---------6-----6---------6-----6---------6-----6---------6--
D:--------------------------------4-----4---------4-----4--------
A:0----0----------0-----0----------------------------------------
D:---------------------------------------------------------------

Guitar 1 (clean)
e:--------5---------------5---------------4---------------4------
B:----5-----5---5-----5-----5---5-----5-----5---5-----5-----5---5
G:--6---------6-----6---------6-----6---------6-----6---------6--
D:------5---------------5---------------5---------------5--------
A:7---------------7----------------------------------------------
D:--------------------------------0---------------0--------------

Guitar 1 (clean)
e:--------5---------------5---------------5---------------5------
B:----5-----5---5-----5-----5---5-----5-----5---5-----5-----5---5
G:--6---------6-----6---------6-----6---------6-----6---------6--
D:------7--------------7----------------7---------------7--------
A:0--------------0-----------------------------------------------
D:--------------------------------9---------------9--------------
Guitar 2 (distorted)
e:---------------------------------------------------------------
B:---------------------------------------------------------------
G:-2--2----------------------------------------------------------
D:-2--2----------------------------------------------------------
A:-0--0----------------------------------------------------------
D:---------------------------------------------------------------

Guitar 1 (clean)
e:--------4---------------4--------------------------------------
B:----5-----5---5-----5-----5---5--(distortion)------------------
G:--6---------6-----6---------6----4-4-4-4-4-4-4-4-4-4-4-4-4-4-4-
D:------7---------------7----------6-6-6-6-6-6-6-6-6-6-6-6-6-6-6-
A:---------------------------------------------------------------
D:0---------------0----------------------------------------------
                                pm..............................

PRE-VERSE (part 1)
Guitar 1
e:----------------------------|-4th time-------------------------
B:-----------(x3)-------------|----------------------------------
G:--2--2--------------7--6/7--|--2--2--7--7----------------------
D:--2--2----------------------|--2--2--7--7----------------------
A:--0--0--2--2--0--0--5--4/5--|--0--0--5--5--4--2----------------
D:--------2--2--0--0----------|--------------4--2----------------
Guitar 2
e:----------------------------|----------------------------------
B:-------5--------------------|-----5----------------------------
G:-6-7-6---6-7-6--------------|-6-7----7--6----------------------
D:---------------7------------|--------------7-------------------
A:------(x6)------------------|-----------------7----------------
D:----------------------------|---------------------------------- 

PRE-VERSE (part 2)
Guitar 1 (x4)
e:---------------------------------------------------------------
B:---------------------------------------------------------------
G:--4--4----4--7--6----4-----------------------------------------
D:--7--7----7--7--7----7-----------------------------------------
A:---------------------------------------------------------------
D:--------------------------------------------------------------- 

VERSE
e:---------------------------------------------------------------
B:---------------------------------------------------------------
G:-2~------------------------------------------------------------
D:-2~------------------------------------------------------------
A:-0~-----------------------4~-----------------------------------
D:--------------------------4~----------------------------------- 
     So I'm left wondering     There is so much more I wish.....
e:---------------------------------------------------------------
B:---------------------------------------------------------------
G:---------------------------------------------------------------
D:---------------------------------------------------------------
A:-2~-----------0-0--0-0-0--0-0-0--0-0-0--0----------------------
D:-2~-----------0-0--0-0-0--0-0-0--0-0-0--0---------------------- 
             pm............................
     Silence I keep
e:---------------------------------------------------------------
B:---------------------------------------------------------------
G:-2-2--2-2-2--2-2-2--2-2-2--2-4-4--4-4-4--4-4-4--4-4-4--4-------
D:-2-2--2-2-2--2-2-2--2-2-2--2-4-4--4-4-4--4-4-4--4-4-4--4-------
A:-0-0--0-0-0--0-0-0--0-0-0--0-2-2--2-2-2--2-2-2--2-2-2--2-------
D:--------------------------------------------------------------- 
        For fear of breaking myself down     And maybe getting
e:---------------------------------------------------------------
B:---------------------------------------------------------------
G:---------------------------------------------------------------
D:---------------------------------------------------------------
A:-0-0--0-0-0--0-0-0--0-0-0--0---2---2---2---2---2--2------------
D:-0-0--0-0-0--0-0-0--0-0-0--0---2---2---2---2---2--2------------ 
   through,   getting through to you

PRE-CHORUS
Guitar 1
e:---------------------------------------------------------------
B:---------------------------------------------------------------
G:-------------------------7--7---7------------------------------
D:-------------------------7--7---7---4--4-6-6-6h7p6-4-6---------
A:-4--4---4--4--4--4--4--4-5--5---5------------------------------
D:-4--4---4--4--4--4--4--4--------------------------------------- 
Guitar 2
e:---------------------------------------------------------------
B:---------------------------------------------------------------
G:-6--6---6--6--4-----7--6------------2--2-4-4-4h6p4-2-4---------
D:-----------------7-------7--7---7------------------------------
A:---------------------------------------------------------------
D:--------------------------------------------------------------- 

Guitar 1
e:---------------------------------------------------------------
B:---------------------------------------------------------------
G:-2--2---2--2--2--2--2--2---------------------------------------
D:-2--2---2--2--2--2--2--2---------------------------------------
A:-0--0---0--0--0--0--0--0--2-2--2-2-2--2-2-2--2-2-2--2----------
D:--------------------------2-2--2-2-2--2-2-2--2-2-2--2---------- 
Guitar 2
e:---------------------------------------------------------------
B:---------------------------------------------------------------
G:-6--6---4--2--2--4--6--6---------------------------------------
D:---------------------------------------------------------------
A:---------------------------------------------------------------
D:--------------------------------------------------------------- 

CHORUS
Guitar 1
e:---------------------------------------------------------------
B:---------------------------------------------------------------
G:-2--2-2-2-2-2-2-2-2-2-2-2-2-2-2--------------------------------
D:-2--2-2-2-2-2-2-2-2-2-2-2-2-2-2---------9-9-------------9-9----
A:-0--0-0-0-0-0-0-0-0-0-0-0-0-0-0-----7-7-----7-7-----7-7-----7-7
D:--------------------------------6-6-------------6-6------------ 

Guitar 2
e:---------------------------------------------------------------
B:----------------------------------------5-5-------------5-5-3-3
G:------------------------------------4-4-----4-4-----4-4--------
D:--------------------------------6-6-------------6-6------------
A:---------------------------------------------------------------
D:---------------------------------------------------------------
     For      Pete's       sake   Let's      see        straight

e:---------------------------------------------------------------
B:---------------------------------------------------------------
G:---------------------------------------------------------------
D:---------------------------------------------------------------
A:--4-4--4-4----4-4--4-4----0-0--0-0----0-0--0-0-----------------
D:--4-4--4-4----4-4--4-4----0-0--0-0----0-0--0-0----------------- 
pm  ......      ......      ......      ...... 
            Yeah      Clench your fists up in rage

Guitar 1
e:---------------------------------------------------------------
B:---------------------------------------------------------------
G:-2--2-2-2-2-2-2-2-2-2-2-2-2-2-2--------------------------------
D:-2--2-2-2-2-2-2-2-2-2-2-2-2-2-2---------9-9-------------9-9----
A:-0--0-0-0-0-0-0-0-0-0-0-0-0-0-0-----7-7-----7-7-----7-7-----7-7
D:--------------------------------6-6-------------6-6------------ 

Guitar 2
e:---------------------------------------------------------------
B:----------------------------------------5-5-------------5-5-3-3
G:------------------------------------4-4-----4-4-----4-4--------
D:--------------------------------6-6-------------6-6------------
A:---------------------------------------------------------------
D:---------------------------------------------------------------
     Hurts      to      know      we          could         throw

e:---------------------------------------------------------------
B:---------------------------------------------------------------
G:---------------------------------------------------------------
D:---------------------------------------------------------------
A:--4-4--4-4----4-4--4-4----0-0--0-0----0-0--0-0-0-0-0-----------
D:--4-4--4-4----4-4--4-4----0-0--0-0----0-0--0-0-0-0-0-----------
pm........      ......      ......      ..............
                            All this time away

VERSE #2
                             (Just drums, no guitar)
Let's try and work it out, please don't be angry any-

Guitar 1
e:---------------------------------------------------------------
B:---------------------------------------------------------------
G:---------------------------------------------------------------
D:---------------------------------------------------------------
A:-2--2-2-2-2-2-2-2-2-2-2-2-2-2-2-0--0-0-0-0-0-0-0-0-0-0-0-0-0-0-
D:-2--2-2-2-2-2-2-2-2-2-2-2-2-2-2-0--0-0-0-0-0-0-0-0-0-0-0-0-0-0-

Guitar 2
e:-0--0-0-0-0-0-0-0-0-0-0-0-0-0-0-2--2-2-2-2-2-2-2-2-2-2-2-2-2-2-
B:---------------------------------------------------------------
G:---------------------------------------------------------------
D:---------------------------------------------------------------
A:---------------------------------------------------------------
D:--------------------------------------------------------------- 
   more              I'm on your side

e:---------------------------------------------------------------
B:---------------------------------------------------------------
G:-2-2-2---2-2-2---2-2-2---2-2-2---4-4-4---4-4-4---4-4-4---4-4-4-
D:-2-2-2---2-2-2---2-2-2---2-2-2---4-4-4---4-4-4---4-4-4---4-4-4-
A:-0-0-0---0-0-0---0-0-0---0-0-0---2-2-2---2-2-2---2-2-2---2-2-2-
D:---------------------------------------------------------------
pm.....    ...     ...     ...     ...     ...     ...     ...
                  And I dont wanna fight           Put this hate
e:---------------------------------------------------------------
B:---------------------------------------------------------------
G:---------------------------------------------------------------
D:---------------------------------------------------------------
A:-0-0-0---0-0-0---0-0-0---0-0-0---2-2-2---2-2-2---2-2-2---2-2-2-
D:-0-0-0---0-0-0---0-0-0---0-0-0---2-2-2---2-2-2---2-2-2---2-2-2- 
pm.....    ...     ...     ...     ...     ...     ...     ...
   aside             Get back to a place where ....... be friends

SOLO
 Violin (tabbed for guitar)
e:---------------------------------------------------------------
B:---------------------------------------------------------------
G:-6-4-----4-------4-------4-------------------------------------
D:-----7-6---7-6-4---7-6-7---7-6-2-0-------2-0-------------------
A:---------------------------------------------------------------
D:---------------------------------------------------------------
 
Guitar 1
e:---------------------------------------------------------------
B:-7-5-----------------------------------------------------------
G:-----7-6-7-6-4-6-7-6-4-6-7-6-4-2-4-------2-4-------------------
D:---------------------------------------------------------------
A:---------------------------------------------------------------
D:---------------------------------------------------------------
 
Guitar 2 
e:---------------------------------------------------------------
B:---------------------------------------------------------------
G:---------------------------------------------------------------
D:---------------------------------------------------------------
A:---------------------------------------------------------------
D:-4~------------------------------0~----------------------------

 Violin
e:---------------------------------------------------------------
B:-----------------5---------------5-----------------------------
G:-6-4-----7-6-4-7---7-6-4---4-6-7-------------------------------
D:-----7-6-----------------7-------------------------------------
A:---------------------------------------------------------------
D:--------------------------------------------------------------- 
 
Guitar 1
e:-----------------4---------------4-----------4-4-4--5--4--2--4-
B:-5-------7-5-------7-5-------5-7-------------------------------
G:---7-6-4-----7-6-------7-6-7-----------------------------------
D:---------------------------------------------------------------
A:---------------------------------------------------------------
D:--------------------------------------------------------------- 
 
Guitar 2
e:---------------------------------------------------------------
B:---------------------------------------------------------------
G:---------------------------------------------------------------
D:---------------------------------------------------------------
A:-0~----------------------------------------------2x------------
D:---------------------------------2~--------------2x------------ 

REPEAT PRE-CHORUS (x2)

REPEAT PRE-VERSE part 1 (x1)

REPEAT CHORUS (x1)

NEXT PART
e:---------------------------------------------------------------
B:---------------------------------------------------------------
G:---------------------------------------------------------------
D:---------------------------------------------------------------
A:0-0-------------2-2-------------4-4-------------6-6-----7-7----
D:0-0-0-0-0-0-0-0-2-2-2-2-2-2-2-2-4-4-4-4-4-4-4-4-6-6-6-6-7-7-7-7
pm   .............   .............   .............   .....   .... 

e:---------------------------------------------------------------
B:---------------------------------------------------------------
G:---------------------------------------------------------------
D:---------------------------------------------------------------
A:0-0-------------2-2-------------4-4-------------6-6-----7-7----
D:0-0-0-0-0-0-0-0-2-2-2-2-2-2-2-2-4-4-4-4-4-4-4-4-6-6-6-6-7-7-7-7
pm   .............   .............   .............   .....   .... 
   
e:---------------------------------------------------------------
B:---------------------------------------------------------------
G:--------------------------------6-6-6-6-6-6-6-6----------------
D:--------------------------------6-6-6-6-6-6-6-6----------------
A:0-0-------------2-2-------------4-4-4-4-4-4-4-4-4-4-4-4-2-2-2-2
D:0-0-0-0-0-0-0-0-2-2-2-2-2-2-2-2-----------------4-4-4-4-2-2-2-2
pm   .............   .............   .............   .....   ....
      And  all the answers you're racing     to   find    out

e:---------------------------------------------------------------
B:---------------------------------------------------------------
G:---------------------------------------------------------------
D:---------------------------------------------------------------
A:0-0-------------2-2-------------4-4-------------6-6-----7-7----
D:0-0-0-0-0-0-0-0-2-2-2-2-2-2-2-2-4-4-4-4-4-4-4-4-6-6-6-6-7-7-7-7
pm   .............   .............   .............   .....   ....
      They might out run you in the end 

e:---------------------------------------------------------------
B:---------------------------------------------------------------
G:--------------------------------6-6-6-6-6-6-6-6----------------
D:--------------------------------6-6-6-6-6-6-6-6----------------
A:0-0-------------2-2-------------4-4-4-4-4-4-4-4-4-4-4-4-2-2-2-2
D:0-0-0-0-0-0-0-0-2-2-2-2-2-2-2-2-----------------4-4-4-4-2-2-2-2
pm   .............   .............   .............   .....   ....
      And  all the answers you're racing     to   find    out

e:---------------------------------------------------------------
B:---------------------------------------------------------------
G:---------------------------------------------------------------
D:---------------------------------------------------------------
A:0-0-------------2-2-------------4-4-------------6-6-----7-7----
D:0-0-0-0-0-0-0-0-2-2-2-2-2-2-2-2-4-4-4-4-4-4-4-4-6-6-6-6-7-7-7-7
pm   .............   .............   .............   .....   ....
      They might out run you in the end 

ENDING
 Guitar 1
e:---------------------------------------------------------------
B:---------------------------------------------------------------
G:-----------------------(x3)------------------------------------
D:---------------------------------------------------------------
A:0-0-0-0-0-0-0-0-2-2-2-2-2-2-2-2-4-4-4-4-4-4-4-4-6-6-6-6-7-7-7-7
D:0-0-0-0-0-0-0-0-2-2-2-2-2-2-2-2-4-4-4-4-4-4-4-4-6-6-6-6-7-7-7-7 

e:---------------------------------------------------------------
B:---------------------------------------------------------------
G:---------------------------------------------------------------
D:---------------------------------------------------------------
A:0-0-0-0-0-0-0-0-2-2-2-2-2-2-2-2-4-4--4-4-4--4-4-4--4-4-4--4-0~-
D:0-0-0-0-0-0-0-0-2-2-2-2-2-2-2-2-4-4--4-4-4--4-4-4--4-4-4--4-0~- 

 Guitar 2 end solo
e:---------------------------------------------------------------
B:----5--5-------------------------------------------------------
G:-7--------7-6-7-6-4------4-6--4-6-7--6---6-4-4-----------------
D:-----------------------7---------------7-----------------------
A:---------------------------------------------------------------
D:--------------------------------------------------------------- 

e:---------------------------------------------------------------
B:----5--5-------------------------------------------------------
G:-7--------7-6-7-6-4------4-6--4-6-7--6---5~--------------------
D:-----------------------7---------------7-----------------------
A:---------------------------------------------------------------
D:--------------------------------------------------------------- 

e:---------------------------------------------------------------
B:----5--5-------------------------------------------------------
G:-7--------7-6-7-6-4------4-6--4-6-7--6---6-4-4-----------------
D:-----------------------7---------------7-----------------------
A:---------------------------------------------------------------
D:---------------------------------------------------------------

e:---------------------------------------------------------------
B:----5--5-------------------------------------------------------
G:-7--------7-6-7-6-4------4-6h7p6-4-6-4-2-4-2-1-2-1---1---------
D:-----------------------7---------------------------4---4-2-4-4~
A:---------------------------------------------------------------
D:---------------------------------------------------------------





Comments


Popular Yellowcard tabs & chords
Waiting Game Bass Tabs
Awakening 1 Chords
Cut Me, Mick Chords
Holly Wood Died Chords
Only One (Solo) Tabs
Paper Walls 1 Tabs
Something Of Value 4 Tabs
Awakening Ukulele
Oh My Love Ukulele
Soundtrack Ukulele


Song lyrics



↑ Back to top | Tablatures and chords are parodies/interpretations of the original songs. You may use it for private study, scholarship, research or language learning purposes only
© 2014 AZChords.com Contact us | Privacy policy | DMCA | Add/correct tabs | Request tabs | Top 50 tabs