» » »

Yellowcard, Fighting Tabs (ver.1)

Artists:  A B C D E F G H I J K L M N O P Q R S T U V W X Y Z # 

Fighting Tabs (ver.1)

Yellowcard Tabs
 Rating:
4/5 (4 votes)
Fighting lessons Tabs too difficult? Try these video lessons and learn fast
                cOmo va ZhoRrO!

Drop D Tuning
eBGDAD



It's basically "guitar 1", 
*If you're gonna play it in an acoustic way,
I recommend replacing 101010xxx to x355xx
                      121212xxx to x577xx
                      141414xxx to x799xx

                                        

Intro (x3) (0:00 - 0:15)
E|----------------------------------------------|
B|----------------------------------------------|
G|----------------------------------------------|
D|-5-5-5-5--5-5-5-5--7-7-7-7--9-9-9-9--7-7-7-7--|
A|-3-3-3-3--3-3-3-3--5-5-5-5--7-7-7-7--5-5-5-5--|
D|-5-5-5-5--5-5-5-5--7-7-7-7--9-9-9-9--7-7-7-7--|


Verse 1 (x2) (0:16 - 0:36)
Palm Muted
B|--------------------------------------|
G|--------------------------------------|
D|-2-2-2-2-2-2-2-2--5-5-5-5--0-0-0-0----|
A|-2-2-2-2-2-2-2-2--5-5-5-5--0-0-0-0----|
D|-2-2-2-2-2-2-2-2--5-5-5-5--0-0-0-0----|

B|--------------------------------------|
G|--------------------------------------|
D|-2-2-2-2-2-2-2-2--10 10-10---7-7-7-7--|
A|-2-2-2-2-2-2-2-2--10-10-10---7-7-7-7--|
D|-2-2-2-2-2-2-2-2--10-10-10---7-7-7-7--|


Chorus (x2) (0:37 - 0:51)

E|---------------------------------------------------------|
B|---------------------------------------------------------|
G|---------------------------------------------------------|
D|-10-10-10---10-10-10---12-12-12---14-14-14---12-12-12----|
A|-10-10-10---10-10-10---12-12-12---14-14-14---12-12-12----|
D|-10-10-10---10-10-10---12-12-12---14-14-14---12-12-12----|


E|----------------------------------|
B|----------------------------------|
G|----------------------------------|
D|-10-10-10---10-10-10---12-12-12---|
A|-10-10-10---10-10-10---12-12-12---|
D|-10-10-10---10-10-10---12-12-12---|



Verse 2 (x1) (0:52 - 1:15)
Palm Muted
B|-----------------------------------------|
G|-----------------------------------------|
D|-2-2-2-2-2-2-2-2--5-5-5-5--0-0-0-0-------|
A|-2-2-2-2-2-2-2-2--5-5-5-5--0-0-0-0-------|
D|-2-2-2-2-2-2-2-2--5-5-5-5--0-0-0-0-------|

B|-----------------------------------------|
G|-----------------------------------------|
D|-2-2-2-2-2-2-2-2--10 10-10---7-7-7-7-----|
A|-2-2-2-2-2-2-2-2--10-10-10---7-7-7-7-----|
D|-2-2-2-2-2-2-2-2--10-10-10---7-7-7-7-----|

B|-----------------------------------------|
G|-----------------------------------------|
D|-2-2-2-2-2-2-2-2--5-5-5-5--0-0-0-0-------|
A|-2-2-2-2-2-2-2-2--5-5-5-5--0-0-0-0-------|
D|-2-2-2-2-2-2-2-2--5-5-5-5--0-0-0-0-------|

B|-----------------------------------------|
G|-----------------------------------------|
D|-2-2-2-2-2-2-2-2--10 10-10---12-12-12----|
A|-2-2-2-2-2-2-2-2--10-10-10---12-12-12----|
D|-2-2-2-2-2-2-2-2--10-10-10---12-12-12----|



Chorus (x4) (1:16 - 1:36)
E|---------------------------------------------------------|
B|---------------------------------------------------------|
G|---------------------------------------------------------|
D|-10-10-10---10-10-10---12-12-12---14-14-14---12-12-12----|
A|-10-10-10---10-10-10---12-12-12---14-14-14---12-12-12----|
D|-10-10-10---10-10-10---12-12-12---14-14-14---12-12-12----|

Chorus ending (1:37 - 1:42)
E|-------------|
B|-------------|
G|-------------|
D|-10--10------|
A|-10--10------|
D|-10--10------|


Interlude (1:43 - 2:19)
E|--------------------------------------------|
B|--------------------------------------------|
G|--------------------------------------------|
D|-2-2-2----5-5-5----10-10-10-10----5-5-5-----|
A|-2-2-2----5-5-5----10-10-10-10----5-5-5-----|
D|-2-2-2----5-5-5----10-10-10-10----5-5-5-----|

E|--------------------------------------------|
B|--------------------------------------------|
G|--------------------------------------------|
D|-2-2-2----5-5-5----10-10-10-10----12-12-12--|
A|-2-2-2----5-5-5----10-10-10-10----12-12-12--|
D|-2-2-2----5-5-5----10-10-10-10----12-12-12--|

E|--------------------------------------------|
B|--------------------------------------------|
G|--------------------------------------------|
D|-2-2-2----5-5-5----10-10-10-10----5-5-5-----|
A|-2-2-2----5-5-5----10-10-10-10----5-5-5-----|
D|-2-2-2----5-5-5----10-10-10-10----5-5-5-----|
E|--------------------------------------------|
B|--------------------------------------------|
G|--------------------------------------------|
D|-2-2-2----5-5-5----10-10-10-10----7-7-7-----|
A|-2-2-2----5-5-5----10-10-10-10----7-7-7-----|
D|-2-2-2----5-5-5----10-10-10-10----7-7-7-----|


E|--------------------------------------------|
B|--------------------------------------------|
G|--------------------------------------------|
D|-2-2-2----5-5-5----10-10-10-10----5-5-5-----|
A|-2-2-2----5-5-5----10-10-10-10----5-5-5-----|
D|-2-2-2----5-5-5----10-10-10-10----5-5-5-----|

E|--------------------------------------------|
B|--------------------------------------------|
G|--------------------------------------------|
D|-2-2-2----5-5-5----10-10-10-10----7-7-7-----|
A|-2-2-2----5-5-5----10-10-10-10----7-7-7-----|
D|-2-2-2----5-5-5----10-10-10-10----7-7-7-----|

E|-------------|
B|-------------|
G|-12-12-12----|
D|-12-12-12----|
A|-10-10-10----|
D|-10-10-10----|



Chorus (x6) (2:20 - 2:51)
E|---------------------------------------------------------|
B|---------------------------------------------------------|
G|---------------------------------------------------------|
D|-10-10-10---10-10-10---12-12-12---14-14-14---12-12-12----|
A|-10-10-10---10-10-10---12-12-12---14-14-14---12-12-12----|
D|-10-10-10---10-10-10---12-12-12---14-14-14---12-12-12----|

Chorus and song ending (2:52 - 3:00)
E|----------------------------------|
B|----------------------------------|
G|----------------------------------|
D|-10-10-10---10-10-10---12-12-12---|
A|-10-10-10---10-10-10---12-12-12---|
D|-10-10-10---10-10-10---12-12-12---|





AWANTE LA RATA WN!
MUFA, CUYI, WAYITO, MORISITA, ROSAO los kero hermANOS. 
Hope u'll like it!
            
Submit corrections

comments powered by Disqus
↑ Back to top | Yellowcard Tabs for Fighting. Lyrics for acoustic guitar and electric guitar. Tablatures and chords are parodies/interpretations of the original songs. You may use it for private study, scholarship, research or language learning purposes only