» » »

Yardbirds, For Your Love Tabs (ver.2)

Artists:  A B C D E F G H I J K L M N O P Q R S T U V W X Y Z # 

For Your Love Tabs (ver.2)

Yardbirds Tabs
Rating:
5/5 (5 votes)
For Your Love lessons Tabs too difficult? Try these video lessons and learn fast
                ----------------------------------------------------------------------------
                    Yardbirds (The) - For Your Love
----------------------------------------------------------------------------




Guitar - standard tuning(eBGDAE), clean
Bass - standard tuning(eBGDAE)


Guitar:
e|-0~-|-3~-|-5~-|-5~-|
B|-0~-|-0~-|-5~-|-5~-|
G|-0~-|-0~-|-6~-|-5~-|
D|-2~-|-0~-|-7~-|-7~-|
A|-2~-|-2~-|-7~-|-7~-|
E|-0~-|-3~-|-5~-|-5~-| 11x
Bass:
G|----|----|----|----|
D|----|----|----|----|
A|----|----|----|----|
E|-0~-|-3~-|-5~-|-5~-| 11x

(3 full note long pause)

Guitar:
e|-----------------------------------------------------------------|
B|-----------------------------------------------------------------|
G|-----------------------------------------------------------------|
D|-----1-1-4-4-6-4-----1-1-4-4-6-4-----4-4-7-7-9-7---------2-2-4-2-|
A|-2-2-------------2-2-------------5-5-------------0-0-4-4---------|
E|-----------------------------------------------------------------|
Bass: none

Guitar:
e|---------------------------------------------------0~~~~~~~~~~~~-|-0~~-|
B|---------------------------------------------------2~~~~~~~~~~~~-|-1~~-|
G|---------------------------------------------------0~~~~~~~~~~~~-|-0~~-|
D|-----1-1-4-4-6-4-----1-1-4-4-6-4-----4-4-7-7-9-7---2~~~~~~~~~~~~-|-2~~-|
A|-2-2-------------2-2-------------5-5---------------0~~~~~~~~~~~~-|-0~~-|
E|-----------------------------------------------------------------|-----|
Bass: none

Guitar:
e|-0~-|-3~-|-5~-|-5~-|
B|-0~-|-0~-|-5~-|-5~-|
G|-0~-|-0~-|-6~-|-5~-|
D|-2~-|-0~-|-7~-|-7~-|
A|-2~-|-2~-|-7~-|-7~-|
E|-0~-|-3~-|-5~-|-5~-| 9x
Bass:
G|----|----|----|----|
D|----|----|----|----|
A|----|----|----|----|
E|-0~-|-3~-|-5~-|-5~-| 9x

Guitar:
e|-0-0-0-0-0-0-0-0-|-3-3-3-3-3-3-3-3-|-5-5-5-5-5-5-5-5-|-5-5-5-5-5-5-5-5-|
B|-0-0-0-0-0-0-0-0-|-0-0-0-0-0-0-0-0-|-5-5-5-5-5-5-5-5-|-5-5-5-5-5-5-5-5-|
G|-0-0-0-0-0-0-0-0-|-0-0-0-0-0-0-0-0-|-6-6-6-6-6-6-6-6-|-5-5-5-5-5-5-5-5-|
D|-2-2-2-2-2-2-2-2-|-0-0-0-0-0-0-0-0-|-7-7-7-7-7-7-7-7-|-7-7-7-7-7-7-7-7-|
A|-2-2-2-2-2-2-2-2-|-2-2-2-2-2-2-2-2-|-7-7-7-7-7-7-7-7-|-7-7-7-7-7-7-7-7-|
E|-0-0-0-0-0-0-0-0-|-3-3-3-3-3-3-3-3-|-5-5-5-5-5-5-5-5-|-5-5-5-5-5-5-5-5-|3x
Bass:
G|----|----|----|----|
D|----|----|----|----|
A|----|----|----|----|
E|-0~-|-3~-|-5~-|-5~-| 3x

Guitar:
e|-0~~~-|
B|-0~~~-|
G|-0~~~-|
D|-2~~~-|
A|-2~~~-|
E|-0~~~-|
Bass:
G|------|
D|------|
A|------|
E|-0~~~-|



~: let ring
            
Submit corrections

comments powered by Disqus
↑ Back to top | Yardbirds Tabs for For Your Love. Lyrics for acoustic guitar and electric guitar. Tablatures and chords are parodies/interpretations of the original songs. You may use it for private study, scholarship, research or language learning purposes only