>
 >
For Your Love

For Your Love Guitar Tabs

Yardbirds - For Your Love chords, tabs, tablatures, lyrics

Guitar lessons | Add/correct | Request | Top 50 tabs Artists:  A B C D E F G H I J K L M N O P Q R S T U V W X Y Z 0-9

For Your Love Guitar Tabs – Yardbirds

CD, Sheet music, Poster

Do you like For Your Love? Share with your friends now
Bass TabsBass Tabs v2ChordsChords v2Drum TabsTabsTabs v2Tabs v3Ukulele
Intro
 Em        G         A         Am        Am
|-0-------|-3-------|-5-------|-5-------|-5-------|
|-0-------|-3-------|-5-------|-5-------|-5-------|
|-0-------|-4-------|-6-------|-5-------|-5-------|
|-2-------|-5-------|-7-------|-7-------|-7-------|
|-2-------|-5-------|-7-------|-7-------|-7-------|
|-0-------|-3-------|-5-------|-5-------|-5-------|

 Em             G              A              Am
|-0--0-0--0-0--|-3--3-3--3-3--|-5--5-5--5-5--|-5--5-5--5-5--|
|-0--0-0--0-0--|-3--3-3--3-3--|-5--5-5--5-5--|-5--5-5--5-5--|
|-0--0-0--0-0--|-4--4-4--4-4--|-6--6-6--6-6--|-5--5-5--5-5--|
|-2--2-2--2-2--|-5--5-5--5-5--|-7--7-7--7-7--|-7--7-7--7-7--|
|-2--2-2--2-2--|-5--5-5--5-5--|-7--7-7--7-7--|-7--7-7--7-7--|
|-0--0-0--0-0--|-3--3-3--3-3--|-5--5-5--5-5--|-5--5-5--5-5--|

Verse

Em                 G           A                        Am
  I'd give you everything_and more, and that's for sure.__

Em                 G                  A                 Am
  I'd give the moon______ if it were______ mine to give.__
                                                       
                                                      (For your love.__)

Em                  G                   A                       Am
  I'd bring you dia - mond rings_ and things right to your door.__

Em                  G                A                     Am
  I'd give the stars____ and the sun__  be - fore i'd live.__

                                                      (For your love.__)

Em                    G                 A                 Am
  To thirill you with__ de - light,_      I'd give you dia - monds bright._

Em                          G              A                           Am
  There'll be days I   will__ ex - cite__    to make you dream of    me__  at night.__

                                                                             (For your love.__)

Chorus

Em                G            A                        Am
_________________________________________________________        For your 

Em                G            A                        Am       

love.____________________________________________________        For your

Em                G            A                        Am

love.____________________________________________________)


 Bridge    (drums)                          
 Em                                           B
|-0-------||--------------|-----------------||-------------------------|
|-0-------||--------------|-----------------||-------------------------|
|-0-------||--------------|-----------------||-------------------------|
|-2-------||--------------|-----------------||-------------2--2--------|
|-2-------||--------------|-----------------||-4--4--------4--4--6--4--|
|-0-------||--------------|-----------------||-2--2--6--6--------------|
                            *vocals doubled         *next 7 measures
                            throughout bridge

                   A                  E                  B
|-----------------|------------------|------------------|--------------
|-----------------|------------------|------------------|--------------
|-----------------|------------------|------------------|---------2----
|---------2-------|-2-2-----2-2-4-2--|------------------|-4-4-----4-4--
|-4-4-----4-4-6-4-|-0-0-4-4----------|-2-2-----2-2-4-2--|-2-2-6-6------
|-2-2-6-6---------|------------------|-0-0-4-4----------|--------------
                                  
                                  A                         C#        B
-------|-------------------------|-------------------------|---------|----|
-------|-------------------------|-------------------------|-6----6--|-4--|
-------|-------------2-----------|-------------------------|-6----6--|-4--|
-6--4--|-4--4--------4--4--6--4--|-2--2--------2--2--4--2--|-6----6--|-4--|
-------|-2--2--6--6--------------|-0--0--4--4--------------|-4----4--|-2--|
-------|-------------------------|-------------------------|---------|----|


Chorus

Am                       Em           G           A          Am

___ at night.___                                                
                (for your    love.____________________________        for your 



Em                        G                         A

love._________________________________________________________________________


|-0-0-0-0-0-0-0-0--|-3-3-3-3-3-3-3-3--|-5-5-5-5-5-5-5-5--|
|-0-0-0-0-0-0-0-0--|-3-3-3-3-3-3-3-3--|-5-5-5-5-5-5-5-5--|
|-0-0-0-0-0-0-0-0--|-4-4-4-4-4-4-4-4--|-6-6-6-6-6-6-6-6--|
|-2-2-2-2-2-2-2-2--|-5-5-5-5-5-5-5-5--|-7-7-7-7-7-7-7-7--|
|-2-2-2-2-2-2-2-2--|-5-5-5-5-5-5-5-5--|-7-7-7-7-7-7-7-7--|
|-0-0-0-0-0-0-0-0--|-3-3-3-3-3-3-3-3--|-5-5-5-5-5-5-5-5--|

 Am                         Am                        Em
|-5--5--5--5--5--5--5--5--||-5--5--5--5--5--5--5--5--|-0--|
|-5--5--5--5--5--5--5--5--||-5--5--5--5--5--5--5--5--|-0--|
|-5--5--5--5--5--5--5--5--||-5--5--5--5--5--5--5--5--|-0--|
|-7--7--7--7--7--7--7--7--||-7--7--7--7--7--7--7--7--|-2--|
|-7--7--7--7--7--7--7--7--||-7--7--7--7--7--7--7--7--|-2--|
|-5--5--5--5--5--5--5--5--||-5--5--5--5--5--5--5--5--|-0--|





Comments


Popular Yardbirds tabs & chords
Evil Hearted You Bass Tabs
Pounds And Stomps Bass Tabs
Shapes Of Things Bass Tabs
Shapes Of Things Chords
For Your Love 2 Tabs
Heart Full Of Soul 1 Tabs
Mr Your A Better Man Than I Tabs
Still Im Sad 1 Tabs
Think About It Tabs
Good Morning Little Schoolgirl Ukulele


Song lyrics



↑ Back to top | Tablatures and chords are parodies/interpretations of the original songs. You may use it for private study, scholarship, research or language learning purposes only
© 2014 AZChords.com Contact us | Privacy policy | DMCA | Add/correct tabs | Request tabs | Top 50 tabs