>
 >
Lost Woman

Lost Woman Bass Tabs

Yardbirds - Lost Woman chords, tabs, tablatures, lyrics

Guitar lessons | Add/correct | Request | Top 50 tabs Artists:  A B C D E F G H I J K L M N O P Q R S T U V W X Y Z 0-9

Lost Woman Bass Tabs – Yardbirds

CD, Sheet music, Poster

Do you like Lost Woman? Share with your friends now
Bass Tabs
			     Lost Woman - The Yardbirds


Tuning: Standard

This is only my amateur attempt at tabbing this song. Any suggestions are more than 
Now, on to the blueswailing and yardmerising!

INTRO

G|---97--------|x4----97----------|---97-------------------------------------|
D|-----97------|--------97--------|-----97-----------------------------------|
A|-7-----10----|----7-----10-7----|-7-----10-----7---------------------------|
E|---------567-|---------------89-|---------567------------------------------|

REFRAIN

G|-555-55--888-88--11-11-11--11-11-11-11-------------------------------------|
D|---------------------------------------------------------------------------|
A|---------------------------------------------------------------------------|
E|---------------------------------------------------------------------------|

VERSE

G|---97--------|x5-----------------------------------------------------------|
D|-----97------|-------------------------------------------------------------|
A|-7-----10----|-----7-------------------------------------------------------|
E|---------567-|-------------------------------------------------------------|

Then, play refrain again, then:

G|---97--------|-------------------------------------------------------------|
D|-----97------|-------------------------------------------------------------|
A|-7-----10----|-----7-8-----------------------------------------------------|
E|---------567-|-------------------------------------------------------------|

G|---------5--------------5~~~-|x2-------------------------------------------|
D|-------7---7----------7------|---------------------------------------------|
A|--5~~~-----------5~~~--------|---------------------------------------------|
E|-----------------------------|---------------------------------------------|

Next is the very repetitive part that it think goes like this:

G|-----------------------------------------------------------------------------|
D|--------------------------------------1:05 to 1:42---------------------------|
A|-----------------------------------------------------------------------------|
E|-77777777777777777777777777777777--------------------------------------------|

Next is the part (1:42-2:05)that I have no clue about. HELP!

G|-----------------------------------------------------------------------------|
D|------------------------------------2:05 to 2:38-----------------------------|
A|-----------------------------------------------------------------------------|
E|-77777777777777777777777777777777--------------------------------------------|

G|----97--------|x7----------------------------------------------------------|
D|------97------|------------------------------------------------------------|
A|--7-----10----|------7-----------------------------------------------------|
E|----------567-|------------------------------------------------------------|

And, then the refrain again, then:

G|----97---------------------------------------------------------------------|
D|------97-------------------------------------------------------------------|
A|--7-----10------7---7~~~~~~~~~~~~~-----------------------------------------|
E|----------567--------------------------------------------------------------|

THE END

Sometimes I play the refrain like this.

G|-777-77--10-10-10--10-10---13-13-13--13-13-13-13---------------------------|
D|-555-55---8--8--8---8--8---11-11-11--11-11-11-11---------------------------|
A|---------------------------------------------------------------------------|
E|---------------------------------------------------------------------------|


| /  slide up
| \  slide down
| h  hammer-on
| p  pull-off
| ~  vibrato
| +  harmonic
| x  Mute note





Comments


Popular Yardbirds tabs & chords
Evil Hearted You Bass Tabs
Got To Hurry 1 Bass Tabs
Heart Full Of Soul Bass Tabs
Shapes Of Things Bass Tabs
For Your Love Chords
For Your Love 1 Tabs
Mystery Of Being Tabs
Stroll On 1 Tabs
I Wish You Would Ukulele
Shapes Of Things Ukulele


Song lyrics



↑ Back to top | Tablatures and chords are parodies/interpretations of the original songs. You may use it for private study, scholarship, research or language learning purposes only
© 2014 AZChords.com Contact us | Privacy policy | DMCA | Add/correct tabs | Request tabs | Top 50 tabs