>
 >
Contagious 1

Contagious 1 Guitar Tabs

Y And T - Contagious 1 chords, tabs, tablatures, lyrics

Guitar lessons | Add/correct | Request | Top 50 tabs Artists:  A B C D E F G H I J K L M N O P Q R S T U V W X Y Z 0-9

Contagious 1 Guitar Tabs – Y And T

CD, Sheet music, Poster

Do you like Contagious 1? Share with your friends now
Bass TabsTabsTabs v2
-----------------------------------------------------------------------------
                            Contagious - Y & T (GUITAR)
                       
-----------------------------------------------------------------------------

Tuning: Standard

=============================================================================

      


          
Guitar 1



             PM PM PM PM PM PM PM PM    PM PM PM PM PM PM PM PM  
             E  E  E  E  E  E  E  E     E  E  E  E  E  E  E  E   
E||-------|--------------------------|--------------------------|
B||-------|--------------------------|--------------------------|
G||-------|--------------------------|--------------------------|
D||-------|--------------------------|--------------------------|
A||-------|--------------------------|--------------------------|
E||-------|--7--7--7--7--7--7--7--7--|--7--7--7--7--7--7--7--7--|


  PM PM PM PM PM PM PM PM    PM PM PM PM PM PM PM PM  
  E  E  E  E  E  E  E  E     E  E  E  E  E  E  E  E   
--------------------------|--------------------------|
--------------------------|--------------------------|
--------------------------|--------------------------|
--------------------------|--------------------------|
--------------------------|--------------------------|
--7--7--7--7--7--7--7--7--|--7--7--7--7--7--7--7--7--|


  PM PM PM PM PM PM PM PM    PM PM PM PM PM PM PM PM  
  E  E  E  E  E  E  E  E     E  E  E  E  E  E  E  E   
--------------------------|--------------------------|
--------------------------|--------------------------|
--------------------------|--------------------------|
--------------------------|--------------------------|
--------------------------|--------------------------|
--7--7--7--7--7--7--7--7--|--7--7--7--7--7--7--7--7--|


  PM PM PM PM PM PM PM PM    PM PM PM PM PM PM PM PM  
  E  E  E  E  E  E  E  E     E  E  E  E  E  E  E  E   
--------------------------|--------------------------|
--------------------------|--------------------------|
--------------------------|--------------------------|
--------------------------|--------------------------|
--------------------------|--------------------------|
--7--7--7--7--7--7--7--7--|--7--7--7--7--7--7--7--7--|


  PM PM PM PM PM PM PM PM    PM PM PM PM PM PM PM PM  
  E  E  E  E  E  E  E  E     E  E  E  E  E  E  E  E   
--------------------------|--------------------------|
--------------------------|--------------------------|
--------------------------|--------------------------|
--------------------------|--------------------------|
--------------------------|--------------------------|
--5--7--5--0--2--0--5--0--|--5--7--5--0--2--0--5--0--|


  PM PM PM PM PM PM PM PM    PM PM PM PM PM PM PM PM  
  E  E  E  E  E  E  E  E     E  E  E  E  E  E  E  E   
--------------------------|--------------------------|
--------------------------|--------------------------|
--------------------------|--------------------------|
--------------------------|--------------------------|
--------------------------|--------------------------|
--5--7--5--0--2--0--5--0--|--5--7--5--0--2--0--5--0--|


  PM PM PM PM PM PM PM PM    PM PM PM PM PM PM PM PM  
  E  E  E  E  E  E  E  E     E  E  E  E  E  E  E  E   
--------------------------|--------------------------|
--------------------------|--------------------------|
--------------------------|--------------------------|
--------------------------|--------------------------|
--------------------------|--------------------------|
--5--7--5--0--2--0--5--0--|--5--7--5--0--2--0--5--0--|


  PM PM PM PM PM PM PM PM    PM PM PM PM PM PM PM PM  
  E  E  E  E  E  E  E  E     E  E  E  E  E  E  E  E   
--------------------------|--------------------------|
--------------------------|--------------------------|
--------------------------|--------------------------|
--------------------------|--------------------------|
--------------------------|--------------------------|
--5--7--5--0--2--0--5--0--|--5--7--5--0--2--0--5--0--|


  PM PM PM PM PM PM PM PM    PM PM PM PM PM PM PM PM  
  E  E  E  E  E  E  E  E     E  E  E  E  E  E  E  E   
--------------------------|--------------------------|
--------------------------|--------------------------|
--------------------------|--------------------------|
--------------------------|--------------------------|
--------------------------|--------------------------|
--5--7--5--0--2--0--5--0--|--5--7--5--0--2--0--5--0--|


  PM PM PM PM PM PM PM PM    PM PM PM PM PM PM PM PM  
  E  E  E  E  E  E  E  E     E  E  E  E  E  E  E  E   
--------------------------|--------------------------|
--------------------------|--------------------------|
--------------------------|--------------------------|
--------------------------|--------------------------|
--------------------------|--------------------------|
--5--7--5--0--2--0--5--0--|--5--7--5--0--2--0--5--0--|


  PM PM PM PM PM PM PM PM    PM PM PM PM PM PM PM PM  
  E  E  E  E  E  E  E  E     E  E  E  E  E  E  E  E   
--------------------------|--------------------------|
--------------------------|--------------------------|
--------------------------|--------------------------|
--------------------------|--------------------------|
--------------------------|--------------------------|
--5--7--5--0--2--0--5--0--|--5--7--5--0--2--0--5--0--|


  PM PM PM PM PM PM PM PM    PM PM PM PM PM PM PM PM  
  E  E  E  E  E  E  E  E     E  E  E  E  E  E  E  E   
--------------------------|--------------------------|
--------------------------|--------------------------|
--------------------------|--------------------------|
--------------------------|--------------------------|
--------------------------|--------------------------|
--5--7--5--0--2--0--5--0--|--5--7--5--0--2--0--5--0--|


        PM PM PM PM    PM          PM    PM PM    PM  
  E  E  E  E  E  E  E  E     E  E  E  E  E  E  E  E   
--------------------------|--------------------------|
--------------------------|--------------------------|
--------------------------|--------------------------|
--5--5--5--5--5--5--5--5--|--5--5--5--5--5--5--5--5--|
--3--3--3--3--3--3--3--3--|--3--3--3--3--3--3--3--3--|
--------------------------|--------------------------|


        PM PM PM PM    PM          PM    PM PM    PM                         
  E  E  E  E  E  E  E  E     E  E  E  E  E  E  E  E     E  H        E  Q     
--------------------------|--------------------------|----------------------|
--------------------------|--------------------------|----------------------|
--------------------------|--------------------------|----------------------|
--5--5--5--5--5--5--5--5--|--5--5--5--5--5--5--5--5--|--5--------------7----|
--3--3--3--3--3--3--3--3--|--3--3--3--3--3--3--3--3--|--3--------------5----|
--------------------------|--------------------------|----------------------|


  Q.     H        E     Q.     H        E     Q.     E  H         
---------------------|---------------------|---------------------|
---------------------|---------------------|---------------------|
---------------------|---------------------|---------------------|
--8------4--------L--|--6------8--------L--|--4------4--4--------|
--6------2--------L--|--4------6--------L--|--2------2--2--------|
---------------------|---------------------|---------------------|


  Q.     E  H           Q.     H        E     Q.     H        E   
---------------------|---------------------|---------------------|
---------------------|---------------------|---------------------|
---------------------|---------------------|---------------------|
--6------6--6--------|--8------4--------L--|--6------8--------L--|
--4------4--4--------|--6------2--------L--|--4------6--------L--|
---------------------|---------------------|---------------------|


  Q.     E  H           Q.     E  H           E  E  E  E  E  E  E  E   
---------------------|---------------------|--------------------------|
---------------------|---------------------|--------------------------|
---------------------|---------------------|--------------------------|
--4------4--4--------|--6------6--6--------|--6--6--6--6--6--6--6-----|
--2------2--2--------|--4------4--4--------|--4--4--4--4--4--4--4-----|
---------------------|---------------------|--------------------------|


  PM PM PM PM PM PM PM PM    PM PM PM PM PM PM PM PM  
  E  E  E  E  E  E  E  E     E  E  E  E  E  E  E  E   
--------------------------|--------------------------|
--------------------------|--------------------------|
--------------------------|--------------------------|
--------------------------|--------------------------|
--------------------------|--------------------------|
--5--7--5--0--2--0--5--0--|--5--7--5--0--2--0--5--0--|


  PM PM PM PM PM PM PM PM    PM PM PM PM PM PM PM PM  
  E  E  E  E  E  E  E  E     E  E  E  E  E  E  E  E   
--------------------------|--------------------------|
--------------------------|--------------------------|
--------------------------|--------------------------|
--------------------------|--------------------------|
--------------------------|--------------------------|
--5--7--5--0--2--0--5--0--|--5--7--5--0--2--0--5--0--|


  PM PM PM PM PM PM PM PM    PM PM PM PM PM PM PM PM  
  E  E  E  E  E  E  E  E     E  E  E  E  E  E  E  E   
--------------------------|--------------------------|
--------------------------|--------------------------|
--------------------------|--------------------------|
--------------------------|--------------------------|
--------------------------|--------------------------|
--5--7--5--0--2--0--5--0--|--5--7--5--0--2--0--5--0--|


  PM PM PM PM PM PM PM PM    PM PM PM PM PM PM PM PM  
  E  E  E  E  E  E  E  E     E  E  E  E  E  E  E  E   
--------------------------|--------------------------|
--------------------------|--------------------------|
--------------------------|--------------------------|
--------------------------|--------------------------|
--------------------------|--------------------------|
--5--7--5--0--2--0--5--0--|--5--7--5--0--2--0--5--0--|


  PM PM PM PM PM PM PM PM    PM PM PM PM PM PM PM PM  
  E  E  E  E  E  E  E  E     E  E  E  E  E  E  E  E   
--------------------------|--------------------------|
--------------------------|--------------------------|
--------------------------|--------------------------|
--------------------------|--------------------------|
--------------------------|--------------------------|
--5--7--5--0--2--0--5--0--|--5--7--5--0--2--0--5--0--|


  PM PM PM PM PM PM PM PM    PM PM PM PM PM PM PM PM  
  E  E  E  E  E  E  E  E     E  E  E  E  E  E  E  E   
--------------------------|--------------------------|
--------------------------|--------------------------|
--------------------------|--------------------------|
--------------------------|--------------------------|
--------------------------|--------------------------|
--5--7--5--0--2--0--5--0--|--5--7--5--0--2--0--5--0--|


        PM PM PM PM    PM          PM    PM PM    PM  
  E  E  E  E  E  E  E  E     E  E  E  E  E  E  E  E   
--------------------------|--------------------------|
--------------------------|--------------------------|
--------------------------|--------------------------|
--5--5--5--5--5--5--5--5--|--5--5--5--5--5--5--5--5--|
--3--3--3--3--3--3--3--3--|--3--3--3--3--3--3--3--3--|
--------------------------|--------------------------|


        PM PM PM PM    PM          PM    PM PM    PM                         
  E  E  E  E  E  E  E  E     E  E  E  E  E  E  E  E     E  H        E  Q     
--------------------------|--------------------------|----------------------|
--------------------------|--------------------------|----------------------|
--------------------------|--------------------------|----------------------|
--5--5--5--5--5--5--5--5--|--5--5--5--5--5--5--5--5--|--5--------------7----|
--3--3--3--3--3--3--3--3--|--3--3--3--3--3--3--3--3--|--3--------------5----|
--------------------------|--------------------------|----------------------|


  Q.     H        E     Q.     H        E     Q.     E  H         
---------------------|---------------------|---------------------|
---------------------|---------------------|---------------------|
---------------------|---------------------|---------------------|
--8------4--------L--|--6------8--------L--|--4------4--4--------|
--6------2--------L--|--4------6--------L--|--2------2--2--------|
---------------------|---------------------|---------------------|


  Q.     E  H           Q.     H        E     Q.     H        E   
---------------------|---------------------|---------------------|
---------------------|---------------------|---------------------|
---------------------|---------------------|---------------------|
--6------6--6--------|--8------4--------L--|--6------8--------L--|
--4------4--4--------|--6------2--------L--|--4------6--------L--|
---------------------|---------------------|---------------------|


  Q.     E  H           Q.     E  H           E  E  E  E  E  E  E  E   
---------------------|---------------------|--------------------------|
---------------------|---------------------|--------------------------|
---------------------|---------------------|--------------------------|
--4------4--4--------|--6------6--6--------|--6--6--6--6--6--6--6--6--|
--2------2--2--------|--4------4--4--------|--4--4--4--4--4--4--4--4--|
---------------------|---------------------|--------------------------|


     PM PM    PM PM    PM    PM    PM PM    PM    PM  
  E  E  E  E  E  E  E  E     E  E  E  E  E  E  E  E   
--------------------------|--------------------------|
--------------------------|--------------------------|
--------------------------|--------------------------|
--4--------4--------4-----|-----4--------4-----4-----|
--2--2--2--2--2--2--2--2--|--2--2--2--2--2--2--2--2--|
--------------------------|--------------------------|


     PM PM    PM PM    PM    PM    PM PM    PM    PM  
  E  E  E  E  E  E  E  E     E  E  E  E  E  E  E  E   
--------------------------|--------------------------|
--------------------------|--------------------------|
--------------------------|--------------------------|
--6--------6--------6-----|-----6--------6-----6-----|
--4--4--4--4--4--4--4--4--|--4--4--4--4--4--4--4--4--|
--------------------------|--------------------------|


     PM PM    PM PM    PM    PM    PM PM    PM    PM  
  E  E  E  E  E  E  E  E     E  E  E  E  E  E  E  E   
--------------------------|--------------------------|
--------------------------|--------------------------|
--------------------------|--------------------------|
--4--------4--------4-----|-----4--------4-----4-----|
--2--2--2--2--2--2--2--2--|--2--2--2--2--2--2--2--2--|
--------------------------|--------------------------|


     PM PM    PM PM    PM                          PM PM PM PM PM PM PM PM  
  E  E  E  E  E  E  E  E     H.           E  E     E  E  E  E  E  E  E  E   
--------------------------|---------------------|--------------------------|
--------------------------|---------------------|--------------------------|
--------------------------|---------------------|--------------------------|
--6--------6--------6-----|--6------------6-----|--------------------------|
--4--4--4--4--4--4--4--4--|--4------------4-----|--------------------------|
--------------------------|---------------------|--7--7--7--7--7--7--7--7--|


  PM PM PM PM PM PM PM PM    PM PM PM PM PM PM PM PM  
  E  E  E  E  E  E  E  E     E  E  E  E  E  E  E  E   
--------------------------|--------------------------|
--------------------------|--------------------------|
--------------------------|--------------------------|
--------------------------|--------------------------|
--------------------------|--------------------------|
--7--7--7--7--7--7--7--7--|--7--7--7--7--7--7--7--7--|


  PM PM PM PM PM PM PM PM    PM PM PM PM PM PM PM PM  
  E  E  E  E  E  E  E  E     E  E  E  E  E  E  E  E   
--------------------------|--------------------------|
--------------------------|--------------------------|
--------------------------|--------------------------|
--------------------------|--------------------------|
--------------------------|--------------------------|
--7--7--7--7--7--7--7--7--|--7--7--7--7--7--7--7--7--|


  PM PM PM PM PM PM PM PM    PM PM PM PM PM PM PM PM  
  E  E  E  E  E  E  E  E     E  E  E  E  E  E  E  E   
--------------------------|--------------------------|
--------------------------|--------------------------|
--------------------------|--------------------------|
--------------------------|--------------------------|
--------------------------|--------------------------|
--7--7--7--7--7--7--7--7--|--7--7--7--7--7--7--7--7--|


  PM PM PM PM PM PM PM PM                                              
  E  E  E  E  E  E  E  E     Q.     H        E     Q.     H        E   
--------------------------|---------------------|---------------------|
--------------------------|---------------------|---------------------|
--------------------------|---------------------|---------------------|
--------------------------|--8------4--------L--|--6------8--------L--|
--------------------------|--6------2--------L--|--4------6--------L--|
--7--7--7--7--7--7--7--7--|---------------------|---------------------|


  Q.     E  H           Q.     E  H           Q.     H        E   
---------------------|---------------------|---------------------|
---------------------|---------------------|---------------------|
---------------------|---------------------|---------------------|
--4------4--4--------|--6------6--6--------|--8------4--------L--|
--2------2--2--------|--4------4--4--------|--6------2--------L--|
---------------------|---------------------|---------------------|


  Q.     H        E     Q.     E  H           Q.     E  H         
---------------------|---------------------|---------------------|
---------------------|---------------------|---------------------|
---------------------|---------------------|---------------------|
--6------8--------L--|--4------4--4--------|--6------6--6--------|
--4------6--------L--|--2------2--2--------|--4------4--4--------|
---------------------|---------------------|---------------------|


  Q.     H        E     Q.     H        E     Q.     E  H         
---------------------|---------------------|---------------------|
---------------------|---------------------|---------------------|
---------------------|---------------------|---------------------|
--8------4--------L--|--6------8--------L--|--4------4--4--------|
--6------2--------L--|--4------6--------L--|--2------2--2--------|
---------------------|---------------------|---------------------|


  Q.     E  H           Q.     H        E     Q.     H        E   
---------------------|---------------------|---------------------|
---------------------|---------------------|---------------------|
---------------------|---------------------|---------------------|
--6------6--6--------|--8------4--------L--|--6------8--------L--|
--4------4--4--------|--6------2--------L--|--4------6--------L--|
---------------------|---------------------|---------------------|


  Q.     E  H           E  E  E  E  E  E  E  E     W                 
---------------------|--------------------------|-------------------|
---------------------|--------------------------|-------------------|
---------------------|--------------------------|-------------------|
--4------4--4--------|--6--6--6--6--6--6--6-----|-------------------|
--2------2--2--------|--4--4--4--4--4--4--4-----|-------------------|
---------------------|--------------------------|-------------------|


                      PM PM PM PM PM PM PM PM    PM PM PM PM PM PM PM PM  
  W                   E  E  E  E  E  E  E  E     E  E  E  E  E  E  E  E   
-------------------|--------------------------|--------------------------|
-------------------|--------------------------|--------------------------|
-------------------|--------------------------|--------------------------|
-------------------|--------------------------|--------------------------|
-------------------|--------------------------|--------------------------|
-------------------|--5--7--5--0--2--0--5--0--|--5--7--5--0--2--0--5--0--|


  PM PM PM PM PM PM PM PM    PM PM                 
  E  E  E  E  E  E  E  E     E  E  H        Q      
--------------------------|----------------------||
--------------------------|----------------------||
--------------------------|----------------------||
--------------------------|----------------------||
--------------------------|----------------------||
--5--7--5--0--2--0--5--0--|--5--7----------------||


=============================================================
=============================================================
=============================================================



          
Guitar 2



                   PM PM PM PM    PM            PM    PM PM    PM  
             E  E  E  E  E  E  E  E      E   E  E  E  E  E  E  E   
E||-------|--------------------------|----------------------------|
B||-------|--------------------------|--10--10-----9--------9-----|
G||-------|--7--7--------------7-----|---9---9-----9--------9-----|
D||-------|--7--7--------------7-----|---9---9-----9--------9-----|
A||-------|--------------------------|----------------------------|
E||-------|--------7--7--7--7-----7--|----------7-----7--7-----7--|


                                                   PM PM PM PM    PM  
  E  Q    H        E     W                   E  E  E  E  E  E  E  E   
----------------------|-------------------|--------------------------|
----------------------|-------------------|--------------------------|
--9--7----------------|-------------------|--7--7--------------7-----|
--9--7----9--------L--|--L----------------|--7--7--------------7-----|
----------9--------L--|--L----------------|--------------------------|
----------7--------L--|--L----------------|--------7--7--7--7-----7--|


          PM    PM PM    PM                                                
   E   E  E  E  E  E  E  E     E  Q    H        E     H         H          
----------------------------|----------------------|----------------------|
--10--10-----9--------9-----|----------------------|----------------------|
---9---9-----9--------9-----|--9--7----------------|----------------------|
---9---9-----9--------9-----|--9--7----9--------L--|--L---------L---------|
----------------------------|----------9--------L--|--L---------L---------|
----------7-----7--7-----7--|----------7--------L--|--L--------17\--------|


  PM PM PM PM PM PM PM PM    PM PM PM PM PM PM PM PM  
  E  E  E  E  E  E  E  E     E  E  E  E  E  E  E  E   
--------------------------|--------------------------|
--------------------------|--------------------------|
--------------------------|--------------------------|
--------------------------|--------------------------|
--------------------------|--------------------------|
--5--7--5--0--2--0--5--0--|--5--7--5--0--2--0--5--0--|


  PM PM PM PM PM PM PM PM    PM PM PM PM PM PM PM PM  
  E  E  E  E  E  E  E  E     E  E  E  E  E  E  E  E   
--------------------------|--------------------------|
--------------------------|--------------------------|
--------------------------|--------------------------|
--------------------------|--------------------------|
--------------------------|--------------------------|
--5--7--5--0--2--0--5--0--|--5--7--5--0--2--0--5--0--|


  PM PM PM PM PM PM PM PM    PM PM PM PM PM PM PM PM  
  E  E  E  E  E  E  E  E     E  E  E  E  E  E  E  E   
--------------------------|--------------------------|
--------------------------|--------------------------|
--------------------------|--------------------------|
--------------------------|--------------------------|
--------------------------|--------------------------|
--5--7--5--0--2--0--5--0--|--5--7--5--0--2--0--5--0--|


  PM PM PM PM PM PM PM PM    PM PM PM PM PM PM PM PM  
  E  E  E  E  E  E  E  E     E  E  E  E  E  E  E  E   
--------------------------|--------------------------|
--------------------------|--------------------------|
--------------------------|--------------------------|
--------------------------|--------------------------|
--------------------------|--------------------------|
--5--7--5--0--2--0--5--0--|--5--7--5--0--2--0--5--0--|


        PM PM PM PM    PM            PM    PM PM    PM                         
  E  E  E  E  E  E  E  E      E   E  E  E  E  E  E  E     E  Q    H        E   
--------------------------|----------------------------|----------------------|
--------------------------|--10--10-----9--------9-----|----------------------|
--7--7--------------7-----|---9---9-----9--------9-----|--9--7----------------|
--7--7--------------7-----|---9---9-----9--------9-----|--9--7----9--------L--|
--------------------------|----------------------------|----------9--------L--|
--------7--7--7--7-----7--|----------7-----7--7-----7--|----------7--------L--|


                            PM PM PM PM    PM            PM    PM PM    PM  
  W                   E  E  E  E  E  E  E  E      E   E  E  E  E  E  E  E   
-------------------|--------------------------|----------------------------|
-------------------|--------------------------|--10--10-----9--------9-----|
-------------------|--7--7--------------7-----|---9---9-----9--------9-----|
--L----------------|--7--7--------------7-----|---9---9-----9--------9-----|
--L----------------|--------------------------|----------------------------|
--L----------------|--------7--7--7--7-----7--|----------7-----7--7-----7--|


                                                   PM PM PM PM        
  E  Q    H        E     W                   E  E  E  E  E  E  E  E   
----------------------|-------------------|--------------------------|
----------------------|-------------------|--------------------------|
--9--7----------------|-------------------|--------------------------|
--9--7----9--------L--|--L----------------|--5--5--------------5-----|
----------9--------L--|--L----------------|--3--3--3--3--3--3--3--3--|
----------7--------L--|--L----------------|--------------------------|


        PM    PM PM    PM          PM PM PM PM        
  E  E  E  E  E  E  E  E     E  E  E  E  E  E  E  E   
--------------------------|--------------------------|
--------------------------|--------------------------|
--------------------------|--------------------------|
--5--5-----5--------5-----|--5--5--------------5-----|
--3--3--3--3--3--3--3--3--|--3--3--3--3--3--3--3--3--|
--------------------------|--------------------------|


        PM    PM PM    PM                                                 
  E  E  E  E  E  E  E  E     E  H        E  Q                             
--------------------------|----------------------|-------|-------|-------|
--------------------------|----------------------|-------|-------|-------|
--------------------------|----------------------|-------|-------|-------|
--5--5-----5--------5-----|--5-------------------|-------|-------|-------|
--3--3--3--3--3--3--3--3--|--3-------------------|-------|-------|-------|
--------------------------|----------------------|-------|-------|-------|


-------|-------|-------|-------|-------|-------|-------|-------|-------|-------|
-------|-------|-------|-------|-------|-------|-------|-------|-------|-------|
-------|-------|-------|-------|-------|-------|-------|-------|-------|-------|
-------|-------|-------|-------|-------|-------|-------|-------|-------|-------|
-------|-------|-------|-------|-------|-------|-------|-------|-------|-------|
-------|-------|-------|-------|-------|-------|-------|-------|-------|-------|


        PM PM PM PM    PM            PM    PM PM    PM                         
  E  E  E  E  E  E  E  E      E   E  E  E  E  E  E  E     E  Q    H        E   
--------------------------|----------------------------|----------------------|
--------------------------|--10--10-----9--------9-----|----------------------|
--7--7--------------7-----|---9---9-----9--------9-----|--9--7----------------|
--7--7--------------7-----|---9---9-----9--------9-----|--9--7----9--------L--|
--------------------------|----------------------------|----------9--------L--|
--------7--7--7--7-----7--|----------7-----7--7-----7--|----------7--------L--|


                            PM PM PM PM    PM            PM    PM PM    PM  
  W                   E  E  E  E  E  E  E  E      E   E  E  E  E  E  E  E   
-------------------|--------------------------|----------------------------|
-------------------|--------------------------|--10--10-----9--------9-----|
-------------------|--7--7--------------7-----|---9---9-----9--------9-----|
--L----------------|--7--7--------------7-----|---9---9-----9--------9-----|
--L----------------|--------------------------|----------------------------|
--L----------------|--------7--7--7--7-----7--|----------7-----7--7-----7--|


                                                   PM PM PM PM        
  E  Q    H        E     W                   E  E  E  E  E  E  E  E   
----------------------|-------------------|--------------------------|
----------------------|-------------------|--------------------------|
--9--7----------------|-------------------|--------------------------|
--9--7----9--------L--|--L----------------|--5--5--------------5-----|
----------9--------L--|--L----------------|--3--3--3--3--3--3--3--3--|
----------7--------L--|--L----------------|--------------------------|


        PM    PM PM    PM          PM PM PM PM        
  E  E  E  E  E  E  E  E     E  E  E  E  E  E  E  E   
--------------------------|--------------------------|
--------------------------|--------------------------|
--------------------------|--------------------------|
--5--5-----5--------5-----|--5--5--------------5-----|
--3--3--3--3--3--3--3--3--|--3--3--3--3--3--3--3--3--|
--------------------------|--------------------------|


        PM    PM PM    PM                                                  
  E  E  E  E  E  E  E  E                                                   
--------------------------|-------|-------|-------|-------|-------|-------|
--------------------------|-------|-------|-------|-------|-------|-------|
--------------------------|-------|-------|-------|-------|-------|-------|
--5--5-----5--------5-----|-------|-------|-------|-------|-------|-------|
--3--3--3--3--3--3--3--3--|-------|-------|-------|-------|-------|-------|
--------------------------|-------|-------|-------|-------|-------|-------|


                           Q      Q      Q      Q      
-------|-------|-------|--11-----13-----14-----16-----|
-------|-------|-------|--14b----16b----17b----19b----|
-------|-------|-------|------------------------------|
-------|-------|-------|------------------------------|
-------|-------|-------|------------------------------|
-------|-------|-------|------------------------------|


   H          S   S   S  S  E   S   S   
--18---------18h-19p-18--------18h-19h-|
--21b-------------------19-------------|
---------------------------20----------|
---------------------------------------|
---------------------------------------|
---------------------------------------|


                                                         PH                
   S  S  E   S   S   S  S  Q     E   E      Q      E     Q.      E    E    
--18--------18h-19p-18------------------|---------------------------------|
-----19----------------19-------18--19--|--18b----18------------21b--21b--|
--------20----------------20------------|-------------<>18----------------|
----------------------------------------|---------------------------------|
----------------------------------------|---------------------------------|
----------------------------------------|---------------------------------|


     PH                   
     H.            Q      
-------------------2s----|
--<>21~------------------|
-------------------------|
-------------------------|
-------------------------|
-------------------------|


   Q     T  T  T   T  S  S   E  T  T   T   T  T  T   T   T  E   
--11----11p-9--------------------------------------------------|
--------------12p-11p-9----------------------------------------|
------------------------11p-10----10h-11p-10p-8----------------|
------------------------------------------------10h-11p-10p-8--|
---------------------------------------------------------------|
---------------------------------------------------------------|


  T T  T  T  T  T   T  T  Q     Q     S E.    
----------------------------------------9s---|
---------------------------------------------|
---------------------------------------------|
--L-8h-9p-8----------------------------------|
------------11p-9h-11p-9p-8~----L~----L------|
---------------------------------------------|


   T  S.  E    E    E    E    E    E    E       H.            Q     
--19-19b-19b--19b--19b--19b--19b--19b--19b--|--22b-----------------|
--------------------------------------------|----------------------|
--------------------------------------------|----------------------|
--------------------------------------------|----------------------|
--------------------------------------------|----------------------|
--------------------------------------------|----------------------|


        PM PM PM PM    PM            PM    PM PM    PM                         
  E  E  E  E  E  E  E  E      E   E  E  E  E  E  E  E     E  Q    H        E   
--------------------------|----------------------------|----------------------|
--------------------------|--10--10-----9--------9-----|----------------------|
--7--7--------------7-----|---9---9-----9--------9-----|--9--7----------------|
--7--7--------------7-----|---9---9-----9--------9-----|--9--7----9--------L--|
--------------------------|----------------------------|----------9--------L--|
--------7--7--7--7-----7--|----------7-----7--7-----7--|----------7--------L--|


                            PM PM PM PM    PM            PM    PM PM    PM  
  W                   E  E  E  E  E  E  E  E      E   E  E  E  E  E  E  E   
-------------------|--------------------------|----------------------------|
-------------------|--------------------------|--10--10-----9--------9-----|
-------------------|--7--7--------------7-----|---9---9-----9--------9-----|
--L----------------|--7--7--------------7-----|---9---9-----9--------9-----|
--L----------------|--------------------------|----------------------------|
--L----------------|--------7--7--7--7-----7--|----------7-----7--7-----7--|


  E  Q    H        E     W                                     
----------------------|-------------------|-------------------|
----------------------|-------------------|-------------------|
--9--7----------------|-------------------|-------------------|
--9--7----9--------L--|--L----------------|-------------------|
----------9--------L--|--L----------------|-------------------|
----------7--------L--|--L----------------|-------------------|


-------------------|-------------------|-------------------|-------------------|
-------------------|-------------------|-------------------|-------------------|
-------------------|-------------------|-------------------|-------------------|
-------------------|-------------------|-------------------|-------------------|
-------------------|-------------------|-------------------|-------------------|
-------------------|-------------------|-------------------|-------------------|


-------------------|-------------------|-------------------|-------------------|
-------------------|-------------------|-------------------|-------------------|
-------------------|-------------------|-------------------|-------------------|
-------------------|-------------------|-------------------|-------------------|
-------------------|-------------------|-------------------|-------------------|
-------------------|-------------------|-------------------|-------------------|


-------------------|-------------------|-------------------|-------------------|
-------------------|-------------------|-------------------|-------------------|
-------------------|-------------------|-------------------|-------------------|
-------------------|-------------------|-------------------|-------------------|
-------------------|-------------------|-------------------|-------------------|
-------------------|-------------------|-------------------|-------------------|


-------------------|-------------------|-------------------|-------------------|
-------------------|-------------------|-------------------|-------------------|
-------------------|-------------------|-------------------|-------------------|
-------------------|-------------------|-------------------|-------------------|
-------------------|-------------------|-------------------|-------------------|
-------------------|-------------------|-------------------|-------------------|


                                PM PM        PM PM  
  H.            Q        E   E  E  E  E   E  E  E   
----------------------|----------------------------|
----------------------|----------------------------|
----------------------|----------------------------|
----------------------|----------------------------|
----------------------|--0h--2---------------------|
---------------12\----|---------5--0--2p--0--5--0--|


         PM PM        PM PM           PM PM        PM PM  
  E   E  E  E  E   E  E  E     E   E  E  E  E   E  E  E   
----------------------------|----------------------------|
----------------------------|----------------------------|
----------------------------|----------------------------|
----------------------------|----------------------------|
--0h--2---------------------|--0h--2---------------------|
---------5--0--2p--0--5--0--|---------5--0--2p--0--5--0--|


  E   E  H        Q      
-----------------------||
-----------------------||
-----------------------||
-----------------------||
--0h--2----------------||
-----------------------||




Duration Legend
---------------
W - whole
H - half
Q - quarter
E - 8th
S - 16th
T - 32nd
X - 64th
. - note dotted
|-n-|  - n-tuplets


Tablature Legend
----------------
L - tied note
x - dead note
g - grace note
(n) - ghost note
> - accentuded note
NH - natural harmonic
AH - artificial harmonic
TH - tapped harmonic
SH - semi harmonic
PH - pitch harmonic
h - hammer on
p - pull off
b - bend
br - bendRelease
pb - preBend
pbr - preBendRelease
brb - bendReleaseBend
\n/ - tremolo bar dip
\n - tremolo bar dive
-/n - tremolo bar Release up
/n\ - tremolo bar inverted dip
/n - tremolo bar return
-\n - tremolo bar Release down
S - shift slide
s - legato slide
/ -  slide into from below or out of upwards
\ -  slide into from above or out of downwards
~ - vibrato
W - wide vibrato
tr - trill
TP - tremolo picking
T - tapping
S - slap
P - pop
< - fade in
^ - brush up
v - brush down





Comments


Popular Y And T tabs & chords
Contagious Bass Tabs
On With The Show Chords
Dont Stop Runnin Tabs
Dont Wanna Lose Tabs
Forever Intro Tabs
I Believe In You Tabs
Mean Streak Tabs
Rescue Me Tabs
Winds Of Change Tabs
On With The Show Ukulele


Song lyrics



↑ Back to top | Tablatures and chords are parodies/interpretations of the original songs. You may use it for private study, scholarship, research or language learning purposes only
© 2014 AZChords.com Contact us | Privacy policy | DMCA | Add/correct tabs | Request tabs | Top 50 tabs