» » »

Y And T, Contagious Tabs (ver.1)

Artists:  A B C D E F G H I J K L M N O P Q R S T U V W X Y Z # 

Contagious Tabs (ver.1)

Y And T Tabs
Rating:
5/5 (1 vote)
Contagious lessons Tabs too difficult? Try these video lessons and learn fast
                -------------------------------------------------------------------------------
                             Contagious - Y&T
-------------------------------------------------------------------------------

Tuning: Standard

Opening

------------------------------------------------------------------------|
----------------------------9--10----9----------------------------------|
--7--7---------------7------9--------9----------9------9----7-----4-----|
--7--7---------------7------9--------9----------9------9----7-----4-----|
------------------------------------------------------------------2-----|
------------------------------------------------------------------------|


Pre-Verse

------------------------------------------|------------------------------|
------------------------------------------|------------------------------|
------------------------------------------|------------------------------|
------------------------------------------|--------x4--------------------|
-0--2----------------0--2-----------------|------------------------------|
-------0--2--0----2--------0--2--0----2---|------------------------------|
 *  *  *  *  *    *  *  *  *  *  *    *


Pre-Chorus

----------------------------------------------------------------------|
---------------7-8-x-7-----------------------7-8-x-7------------------|
--5--(5)-------7---x-7-x-x-7----5--(5)-------7---x-7-x-x-7-----5------|
--5--(5)-x6------------x-x-7----5--(5)-x6------------x-x-7-----5------|
--3--(3)------------------------3--(3)-------------------------3------|
----------------------------------------------------------------------|

Chorus x2

----|-------------------------------------------------------------------|
----|-------------------------------------------------------------------|
----|-------------------------------------------------------------------|
--6-|-8---------------8-------------------------------------------------|
--4-|-6---9---9--11---6----9--9---11--11--------------------------------|
----|-----7---7---9--------7--7----9---9--------------------------------|


Solo


-11--------13--------14-------16--------18-------18-------------------|
-14<16>----16<18>----17<19>---19<21>----21<23>---21<23>---------------|
----------------------------------------------------------------------|
----------------------------------------------------------------------|
----------------------------------------------------------------------|
----------------------------------------------------------------------|

-18--19--18----------18--19--18-----------18--19--18---------------|
-------------19-------------------19-------------------19----------|
----------------20-------------------20-------------------20-v-----|
-------------------------------------------------------------------|
-------------------------------------------------------------------|
-------------------------------------------------------------------|

-----------------------------------------------------------------------|
--18---19----18-b-19-r-18-------------21-b-23----21-b-23---21-v--------|
-----------------------------18(ah)-v----------------------------------|
-----------------------------------------------------------------------|
-----------------------------------------------------------------------|
-----------------------------------------------------------------------|


----------------------------------------------------------------------|
-------16---------14--12----------------------------------------------|
-s/13----------------------15--13---------------13--11--10------------|
-------------------------------------16--15---------------------------|
----------------------------------------------------------------------|
----------------------------------------------------------------------|


----------------------------------------------------------------------|
----------------------------------------------------------------------|
----------------------------------------------------------------------|
--13--11--10-------------11--9--8-------------------------------------|
---------------13--------------------11--9--8-v-----------------------|
----------------------------------------------------------------------|


-s/21///////////-----------21/////------------21//////----------|
-----------------18--19-----------18--19-------------18--19-----|
----------------------------------------------------------------|
----------------------------------------------------------------|
----------------------------------------------------------------|
----------------------------------------------------------------|


--21-b-25-------------------------------------------------------------|
----------------------------------------------------------------------|
----------------------------------------------------------------------|
----------------------------------------------------------------------|
----------------------------------------------------------------------|
----------------------------------------------------------------------|

Symbols:

b =bend
/ =fast speed picking
v =vibrato
s/ =slide up to
<> =note bent to
x =strings muted on beat
ah =artificial harmonic
* = muting
            
Submit corrections

comments powered by Disqus
↑ Back to top | Y And T Tabs for Contagious. Lyrics for acoustic guitar and electric guitar. Tablatures and chords are parodies/interpretations of the original songs. You may use it for private study, scholarship, research or language learning purposes only