» » »

Y And T, Contagious Bass tabs (ver.1)

Artists:  A B C D E F G H I J K L M N O P Q R S T U V W X Y Z # 

Contagious Bass tabs (ver.1)

Y And T Tabs
 Rating:
4/5 (4 votes)
Contagious lessons Tabs too difficult? Try these video lessons and learn fast
                -----------------------------------------------------------------------------
	                      Contagious - Y & T (BASS)
                       
-----------------------------------------------------------------------------

Tuning: Standard

=============================================================================

Bass



G||-------|-------|-------|-------|-------|-------|-------|-------|-------|
D||-------|-------|-------|-------|-------|-------|-------|-------|-------|
A||-------|-------|-------|-------|-------|-------|-------|-------|-------|
E||-------|-------|-------|-------|-------|-------|-------|-------|-------|


  E  E  E  E  E  E  E  E     E  E  E  E  E  E  E  E   
--------------------------|--------------------------|
--------------------------|--------------------------|
--------------------------|--------------------------|
--5--7--5--0--2--0--5--0--|--5--7--5--0--2--0--5--0--|


  E  E  E  E  E  E  E  E     E  E  E  E  E  E  E  E   
--------------------------|--------------------------|
--------------------------|--------------------------|
--------------------------|--------------------------|
--5--7--5--0--2--0--5--0--|--5--7--5--0--2--0--5--0--|


  E  E  E  E  E  E  E  E     E  E  E  E  E  E  E  E   
--------------------------|--------------------------|
--------------------------|--------------------------|
--------------------------|--------------------------|
--5--7--5--0--2--0--5--0--|--5--7--5--0--2--0--5--0--|


  E  E  E  E  E  E  E  E     E  E  E  E  E  E  E  E   
--------------------------|--------------------------|
--------------------------|--------------------------|
--------------------------|--------------------------|
--5--7--5--0--2--0--5--0--|--5--7--5--0--2--0--5--0--|


  E  E  E  E  E  E  E  E     E  E  E  E  E  E  E  E   
--------------------------|--------------------------|
--------------------------|--------------------------|
--------------------------|--------------------------|
--5--7--5--0--2--0--5--0--|--5--7--5--0--2--0--5--0--|


  E  E  E  E  E  E  E  E     E  E  E  E  E  E  E  E   
--------------------------|--------------------------|
--------------------------|--------------------------|
--------------------------|--------------------------|
--5--7--5--0--2--0--5--0--|--5--7--5--0--2--0--5--0--|


  E  E  E  E  E  E  E  E     E  E  E  E  E  E  E  E   
--------------------------|--------------------------|
--------------------------|--------------------------|
--------------------------|--------------------------|
--5--7--5--0--2--0--5--0--|--5--7--5--0--2--0--5--0--|


  E  E  E  E  E  E  E  E     E  E  E  E  E  E  E  E   
--------------------------|--------------------------|
--------------------------|--------------------------|
--------------------------|--------------------------|
--5--7--5--0--2--0--5--0--|--5--7--5--0--2--0--5--0--|


  E  E  E  E  E  E  E  E     E  E  E  E  E  E  E  E   
--------------------------|--------------------------|
--------------------------|--------------------------|
--3--3--3--3--3--3--3--3--|--3--3--3--3--3--3--3--3--|
--------------------------|--------------------------|


  E  E  E  E  E  E  E  E     E  E  E  E  E  E  E  E     E  H        E  Q     
--------------------------|--------------------------|----------------------|
--------------------------|--------------------------|----------------------|
--3--3--3--3--3--3--3--3--|--3--3--3--3--3--3--3--3--|--3--------------5----|
--------------------------|--------------------------|----------------------|


  Q.     E  H           Q.     E  H           Q.     E  H         
---------------------|---------------------|---------------------|
---------------------|---------------------|---------------------|
--6------2--2--------|--4------6--6--------|--2------2--2--------|
---------------------|---------------------|---------------------|


  Q.     E  H           Q.     E  H           Q.     E  H         
---------------------|---------------------|---------------------|
---------------------|---------------------|---------------------|
--4------4--4--------|--6------2--2--------|--4------6--6--------|
---------------------|---------------------|---------------------|


  Q.     E  H           Q.     E  H           E  E  E  E  E  E  E  E   
---------------------|---------------------|--------------------------|
---------------------|---------------------|--------------------------|
--2------2--2--------|--4------4--4--------|--4--4--4--4--4--4--4-----|
---------------------|---------------------|--------------------------|


  E  E  E  E  E  E  E  E     E  E  E  E  E  E  E  E   
--------------------------|--------------------------|
--------------------------|--------------------------|
--------------------------|--------------------------|
--5--7--5--0--2--0--5--0--|--5--7--5--0--2--0--5--0--|


  E  E  E  E  E  E  E  E     E  E  E  E  E  E  E  E   
--------------------------|--------------------------|
--------------------------|--------------------------|
--------------------------|--------------------------|
--5--7--5--0--2--0--5--0--|--5--7--5--0--2--0--5--0--|


  E  E  E  E  E  E  E  E     E  E  E  E  E  E  E  E   
--------------------------|--------------------------|
--------------------------|--------------------------|
--------------------------|--------------------------|
--5--7--5--0--2--0--5--0--|--5--7--5--0--2--0--5--0--|


  E  E  E  E  E  E  E  E     E  E  E  E  E  E  E  E   
--------------------------|--------------------------|
--------------------------|--------------------------|
--------------------------|--------------------------|
--5--7--5--0--2--0--5--0--|--5--7--5--0--2--0--5--0--|


  E  E  E  E  E  E  E  E     E  E  E  E  E  E  E  E   
--------------------------|--------------------------|
--------------------------|--------------------------|
--------------------------|--------------------------|
--5--7--5--0--2--0--5--0--|--5--7--5--0--2--0--5--0--|


  E  E  E  E  E  E  E  E     E  E  E  E  E  E  E  E   
--------------------------|--------------------------|
--------------------------|--------------------------|
--------------------------|--------------------------|
--5--7--5--0--2--0--5--0--|--5--7--5--0--2--0--5--0--|


  E  E  E  E  E  E  E  E     E  E  E  E  E  E  E  E   
--------------------------|--------------------------|
--------------------------|--------------------------|
--3--3--3--3--3--3--3--3--|--3--3--3--3--3--3--3--3--|
--------------------------|--------------------------|


  E  E  E  E  E  E  E  E     E  E  E  E  E  E  E  E     E  H        E  Q     
--------------------------|--------------------------|----------------------|
--------------------------|--------------------------|----------------------|
--3--3--3--3--3--3--3--3--|--3--3--3--3--3--3--3--3--|--3--------------5----|
--------------------------|--------------------------|----------------------|


  Q.     E  H           Q.     E  H           Q.     E  H         
---------------------|---------------------|---------------------|
---------------------|---------------------|---------------------|
--6------2--2--------|--4------6--6--------|--2------2--2--------|
---------------------|---------------------|---------------------|


  Q.     E  H           Q.     E  H           Q.     E  H         
---------------------|---------------------|---------------------|
---------------------|---------------------|---------------------|
--4------4--4--------|--6------2--2--------|--4------6--6--------|
---------------------|---------------------|---------------------|


  Q.     E  H           Q.     E  H           E  E  E  E  E  E  E  E   
---------------------|---------------------|--------------------------|
---------------------|---------------------|--------------------------|
--2------2--2--------|--4------4--4--------|--4--4--4--4--4--4--4--4--|
---------------------|---------------------|--------------------------|


  E  E  E  E  E  E  E  E     E  E  E  E  E  E  E  E   
--------------------------|--------------------------|
--------------------------|--------------------------|
--2--2--2--2--2--2--2--2--|--2--2--2--2--2--2--2--2--|
--------------------------|--------------------------|


  E  E  E  E  E  E  E  E     E  E  E  E  E  E  E  E   
--------------------------|--------------------------|
--------------------------|--------------------------|
--4--4--4--4--4--4--4--4--|--4--4--4--4--4--4--4--4--|
--------------------------|--------------------------|


  E  E  E  E  E  E  E  E     E  E  E  E  E  E  E  E   
--------------------------|--------------------------|
--------------------------|--------------------------|
--2--2--2--2--2--2--2--2--|--2--2--2--2--2--2--2--2--|
--------------------------|--------------------------|


  E  E  E  E  E  E  E  E     E  E  E  E  E  E  Q                             
--------------------------|-------------------------|-----|-----|-----|-----|
--------------------------|-------------------------|-----|-----|-----|-----|
--4--4--4--4--4--4--4--4--|--4--4--4--4--4--4--4----|-----|-----|-----|-----|
--------------------------|-------------------------|-----|-----|-----|-----|


                          Q.     E  H           Q.     E  H         
-----|-----|-----|-----|---------------------|---------------------|
-----|-----|-----|-----|---------------------|---------------------|
-----|-----|-----|-----|--6------2--2--------|--4------6--6--------|
-----|-----|-----|-----|---------------------|---------------------|


  Q.     E  H           Q.     E  H           Q.     E  H         
---------------------|---------------------|---------------------|
---------------------|---------------------|---------------------|
--2------2--2--------|--4------4--4--------|--6------2--2--------|
---------------------|---------------------|---------------------|


  Q.     E  H           Q.     E  H           Q.     E  H         
---------------------|---------------------|---------------------|
---------------------|---------------------|---------------------|
--4------6--6--------|--2------2--2--------|--4------4--4--------|
---------------------|---------------------|---------------------|


  Q.     E  H           Q.     E  H           Q.     E  H         
---------------------|---------------------|---------------------|
---------------------|---------------------|---------------------|
--6------2--2--------|--4------6--6--------|--2------2--2--------|
---------------------|---------------------|---------------------|


  Q.     E  H           Q.     E  H           Q.     E  H         
---------------------|---------------------|---------------------|
---------------------|---------------------|---------------------|
--4------4--4--------|--6------2--2--------|--4------6--6--------|
---------------------|---------------------|---------------------|


  Q.     E  H           E  E  E  E  E  E  E  E               
---------------------|--------------------------|-----|-----|
---------------------|--------------------------|-----|-----|
--2------2--2--------|--4--4--4--4--4--4--4-----|-----|-----|
---------------------|--------------------------|-----|-----|


  E  E  E  E  E  E  E  E     E  E  E  E  E  E  E  E   
--------------------------|--------------------------|
--------------------------|--------------------------|
--------------------------|--------------------------|
--5--7--5--0--2--0--5--0--|--5--7--5--0--2--0--5--0--|


  E  E  E  E  E  E  E  E     E  E  H        Q      
--------------------------|----------------------||
--------------------------|----------------------||
--------------------------|----------------------||
--5--7--5--0--2--0--5--0--|--5--7----------------||




Duration Legend
---------------
W - whole
H - half
Q - quarter
E - 8th
S - 16th
T - 32nd
X - 64th
. - note dotted
|-n-|  - n-tuplets


Tablature Legend
----------------
L - tied note
x - dead note
g - grace note
(n) - ghost note
> - accentuded note
NH - natural harmonic
AH - artificial harmonic
TH - tapped harmonic
SH - semi harmonic
PH - pitch harmonic
h - hammer on
p - pull off
b - bend
br - bendRelease
pb - preBend
pbr - preBendRelease
brb - bendReleaseBend
\n/ - tremolo bar dip
\n - tremolo bar dive
-/n - tremolo bar Release up
/n\ - tremolo bar inverted dip
/n - tremolo bar return
-\n - tremolo bar Release down
S - shift slide
s - legato slide
/ -  slide into from below or out of upwards
\ -  slide into from above or out of downwards
~ - vibrato
W - wide vibrato
tr - trill
TP - tremolo picking
T - tapping
S - slap
P - pop
< - fade in
^ - brush up
v - brush down
            
Submit corrections

comments powered by Disqus
↑ Back to top | Y And T Bass for Contagious. Lyrics for acoustic guitar and electric guitar. Tablatures and chords are parodies/interpretations of the original songs. You may use it for private study, scholarship, research or language learning purposes only