>
 >
Chuva Dissolvente 1

Chuva Dissolvente 1 Guitar Tabs

Xutos And Pontapes - Chuva Dissolvente 1 chords, tabs, tablatures, lyrics

Guitar lessons | Add/correct | Request | Top 50 tabs Artists:  A B C D E F G H I J K L M N O P Q R S T U V W X Y Z 0-9

Chuva Dissolvente 1 Guitar Tabs – Xutos And Pontapes

CD, Sheet music, Poster

Do you like Chuva Dissolvente 1? Share with your friends now
Bass TabsChordsTabsTabs v2Ukulele
Music By Xutos & Pontapés
e|--------------------------------------------------------------------------|
B|-------7-5------7-5--------5~------------3~---------55~-------------------|
G|7-7-7------7--------7-5~-7----7-5--4--55----5--4-5-7--7-5~-4~--2~---4--5--|
D|7-7-7--------7------------------------------------------------------------|
A|5-5-5---------------------------------------------------------------------|
E|--------------------------------------------------------------------------|

|---------------------------------------------------------------7-5-----|
|-------------------------------------------------------5-----8-----5---|
|7--------4--5~-7prb7--------4-5~--5-7---------4-5--4-5---5-7-------7b--|
|--7/9-7---------------7/9-7------------7/9-7---------------------------|
|-----------------------------------------------------------------------|
|-----------------------------------------------------------------------|

|------------------------------------------------------------------------|
|--------10--------------------------------------------------------------|
|7-9~~prb---9--7~-------4~(prb)--7prb7--------4-4~(prb)--5-7-------5b(5)-|
|----------------7/9-9----------------7/9--7-----------------7/9-7-------|
|------------------------------------------------------------------------|
|------------------------------------------------------------------------|

|-----------------7-5--------------5-------------7^----------|
|-----5---------8-----5-5--5--5-------7-5--------------------|
|-4-5---5-7prb7------7b-5-4---5--7--------5--7-5----5--2-----|
|------------------------------------------------------------|
|------------------------------------------------------------|
|------------------------------------------------------------|

2º Riff:
e|------------------------------------------5--------------|
B|7-5---------55~-----------3~-----------55---5------------|
G|----7-5~--7-----7-5-4--55---5-4-5~--7---------7-5~-4~-2--|
D|---------------------------------------------------------|
A|---------------------------------------------------------|
E|---------------------------------------------------------|

|-------------5----------------------------8-5------------------------------|
|----------55---5------------------------5----8-5---------------------------|
|-4-5~-5/7--------7-5-4/5-7--4-5-7-5---7----------7-5-7---------------------|
|-------------------------------------------------------7-5-7--5----------7-|
|-------------------------------------------------------------7--7-5--------|
|-------------------------------------------------------------------8-7-5---|

|-----------------------------------------------------------------7-5-------|
|---------------------------------------------------------5------8---5--5--5|
|-7-------4--5~--7prb7--------4~prb--5--7-------5b-5--4-5----5/7-----7b-5-4-|
|---7/9-7-------------7/9-7---------------/9-7------------------------------|
|---------------------------------------------------------------------------|
|---------------------------------------------------------------------------|

-------5-------------------------------------------------|
-5-------7-5---------------------------------------------|
-5--7--------5--7-5--4^-5~-2~----------------------------|
---------------------------------------------------------|
---------------------------------------------------------|
---------------------------------------------------------|

Solo:

e|------------------------------------------3-------3--|
B|-5/7-5----8prb8-7----------55~-----------------------|
G|-------7----------9-7--5~-7-----9-7-5---4----4/5-----|
D|--------7--------------------------------------------|
A|-----------------------------------------------------|
E|-----------------------------------------------------|

|---------------5-8-5-----------------------------------------|
|-------5-----5-------8-5-5----3------------------------------|
|-5-4-5---5-7--------------7b----5-4b-2-----------------------|
|-------------------------------------------------------------|
|----------------------------------------3-0------5-----------|
|---------------------------------------------5-8--8-7-8-5----|

|--------------------5--5-5-8-7b7-5--------------------------------------|
|---------------5--5-5---------8-7prb7-5---------------------------------|
|-4~~-5~~-5^-2---------------------------7prb7-5b5-4b4-------------------|
|------------------------------------------------------7-5-4-------------|
|------------------------------------------------------------7-5-4--2-0--|
|------------------------------------------------------------------------|

|-----5----------------------------------------------------------------|
|-------5-7---8prb-7---------------------------------------------------|
|-5-7----------------9-9prbb-9b-9--7-7b-7b-5-5ph8------5ph8-5ph8-------|
|-------------------------------------------------5ph7-----------5ph7--|
|----------------------------------------------------------------------|
|----------------------------------------------------------------------|

|----------------------------------------------------------------------|
|----------------------------------------------------------------------|
|-5ph8-------5ph8-5ph8-------5ph8-5ph8---------------------------------|
|------5ph7------------5ph7------------5ph7-5ph7-----------------------|
|---------------------------------------------5ph7-5ph7-7/0--0ph3------|
|-----------------------------------------------------------------0ph3-|

|-----------------------------------------------------|
|-----------------------------------------------------|
|-----------------------------------------------------|
|-----------------------------------------------------|
|-0ph3-0ph3-------0ph3-------0ph3-0ph3------0ph3------|
|-----------0ph3-------0ph3-----------0ph3------0ph3~-|

|------------------------------------------------------------------|
|--8---8---5-8b-8b--------10ph13--------------10ph13--------10ph13-|
|7b--7b--7----------10ph12--------10ph12-10ph12-------10ph12-------|
|------------------------------------------------------------------|
|------------------------------------------------------------------|
|------------------------------------------------------------------|

|--------------------------------------------------------------------|
|--------------10ph13---------------10ph13-12-13--15b~~~---15--12prb-|
|-10ph12-10ph12--------10ph12-10ph12----------15b--------------------|
|--------------------------------------------------------------------|
|--------------------------------------------------------------------|
|--------------------------------------------------------------------|

|----------------------------------------------------5^-----|
|-8prb-3-----7-5---7-7b7-5-------------------------------2--|
|---------------7-----------7-5~-~-~-~-~-~-~~-~~~~-------2--|
|----------------7---------------------------------------2--|
|-----------------------------------------------------------|
|-----------------------------------------------------------|

Note:
b   - Full Bend
prb - Pre-bend
^   - Tremolo Dive and Release
~   - Tremolo
ph  - Pull-Off
/   - Slide





Comments


Popular Xutos And Pontapes tabs & chords
Amor Com Paixao Chords
Longo Se Torna A Espera Chords
O Homem Do Leme Chords
Sensao Chords
Para Sempre Tabs
Quem E Quem Tabs
Remar Remar Tabs
Estupidez Ukulele
O Sangue Da Cidade Ukulele
Sensao Ukulele


Song lyrics



↑ Back to top | Tablatures and chords are parodies/interpretations of the original songs. You may use it for private study, scholarship, research or language learning purposes only
© 2014 AZChords.com Contact us | Privacy policy | DMCA | Add/correct tabs | Request tabs | Top 50 tabs