» » »

Xutos And Pontapes, Chuva Dissolvente Bass tabs (ver.1)

Artists:  A B C D E F G H I J K L M N O P Q R S T U V W X Y Z # 

Chuva Dissolvente Bass tabs (ver.1)

Xutos And Pontapes Tabs
 Rating:
4/5 (4 votes)
Chuva Dissolvente lessons Tabs too difficult? Try these video lessons and learn fast
1
                MUSIC: CHUVA DISSOLVENTE

Intro:
E--------------|
A-5--5--5--5---|
D--------------|
G--------------|

Riff 1
E-5-5-5--------3-3-3--------|
A--------3-3-3--------5-5-5-|
D---------------------------|
G---------------------------|

Riff 2:
E------|
A-5--5-|
D------|
G------|

Riff 3:
E-5-5-5-5-----------|
A-----------5-5-5-5-|
D-------------------|
G-------------------|

Riff4:
E-3-3-3-0-0-3-|
A-------------|
D-------------|
G-------------|

Riff 5:
E-5--5--5--5-5------|
A-----------------5-|
D-------------------|
G-------------------|

Intro  1x (00:16)
Riff 1 6x (00:23)
Riff 2 1x (01:04)
Riff 1 4x (01:08)
Riff 3 3x (01:36)
Riff 4 1x (01:46)
Riff 1 8x (01:50)
Riff 3 3x (02:45)
Riff 4 4x (02:56)
Riff 1 6x (03:03)
Riff 5 1x (04:00)

wwww.xutos.pt
            
Submit corrections

comments powered by Disqus
↑ Back to top | Xutos And Pontapes Bass for Chuva Dissolvente. Lyrics for acoustic guitar and electric guitar. 1 Tablatures and chords are parodies/interpretations of the original songs. You may use it for private study, scholarship, research or language learning purposes only