» » »

Xutos And Pontapes, Homem Do Leme Bass tabs (ver.1)

Artists:  A B C D E F G H I J K L M N O P Q R S T U V W X Y Z # 

Homem Do Leme Bass tabs (ver.1)

Xutos And Pontapes Tabs
 Rating:
4/5 (4 votes)
Homem Do Leme lessons Tabs too difficult? Try these video lessons and learn fast
                MUSIC:HOMEM DO LEME (Circo de Feras,1987 Polygram Track 01 03:54)
BASS PLAYER:TIM

Riff 1
E-5-5-----5-0-0-3-3-0-1-1-1-11-3-3-3-3-3-|
A-----3-3--------------------------------|
D----------------------------------------|
G----------------------------------------|

Riff 2
E-5-5-----5--------------------------------------|
A-----3-3---7-7-10-10-7-8-8-8-8-8-10-10-10-10-10-|
D------------------------------------------------|
G------------------------------------------------|

Riff 3
E-----------------------------------------|
A-3-3-3-3-3---------------------7-7-7-7-7-|
D-----------5-5-5-5-5-7-7-7-7-7-----------|
G-----------------------------------------|

Riff 4
E------------------------------------------|
A-3-3-3-3-3----------------------7-7-7-7-7-|
D------------5-5-5-5-5-7-7-7-7-7-----------|
G------------------------------------------|

Riff 1 4x (00:02)
Riff 2 2x (00:35)
Riff 3 2x (00:51)
Riff 1 4x (01:08)
Riff 2 2x (01:40)
Riff 3 2x (01:58)
Riff 1 5x (02:12)
Riff 2 1x (02:54)
Riff 3 3x (03:00)
Riff 4 1x (03:24)
            
Submit corrections

comments powered by Disqus
↑ Back to top | Xutos And Pontapes Bass for Homem Do Leme. Lyrics for acoustic guitar and electric guitar. Tablatures and chords are parodies/interpretations of the original songs. You may use it for private study, scholarship, research or language learning purposes only