>
 >
Joker

Joker Guitar Tabs

X Japan - Joker chords, tabs, tablatures, lyrics

Guitar lessons | Add/correct | Request | Top 50 tabs Artists:  A B C D E F G H I J K L M N O P Q R S T U V W X Y Z 0-9

Joker Guitar Tabs – X Japan

CD, Sheet music, Poster

Do you like Joker? Share with your friends now
Bass TabsTabs

JOKER
As recorded by X Japan


	



Gtr I (E A D G B E) - 'Vocals'
Gtr II (E A D G B E) - 'Guitar 1'
Gtr III (E A D G B E) - 'Guitar 2'

  Q=178
 4/4
  Gtr II
  W          H    E S S E E   +Q   E E E E E E   +Q   E E E S S E E
|----------|----------------|------------------|---------------------|
|----------|----------------|------------------|---------------------|
|----------|----------------|------------------|---------------------|
|----------|----------------|------------------|---------------------|
|----------|--------------2-|-(2)--2-2-2-----7-|-(7)--7-7-7-------2--|
|----------|--------2---2-0-|-(0)--0-0-0-2-4-5-|-(5)--5-5-5-2---2-0--|
|
| Gtr III
| W          H    E S S E E   +Q   E E E E E E   +Q   E E E S S E E
|----------|--------2---2---|------------------|------------2---2----|
|----------|--------2---2-5-|-(5)--------3---2-|-(2)--------2---2-5--|
|----------|--------6-----4-|-(4)--------4---2-|-(2)--------6-----4--|
|----------|----------------|------------------|---------------------|
|----------|----------------|------------------|------0-0-0----------|
|----------|----------------|------0-0-0-------|---------------------|


  +Q   E E E E E E   +E  E E E E E E E
|------------------|-------------------|
|------------------|-------------------|
|------------------|-------------------|
|------------------|-------------------|
|-(2)--2-2-2-----7-|-(7)---7-7-4-2-0-2-|
|-(0)--0-0-0-2-4-5-|-(5)---5-5---------|
|
| +Q   E E E E E E   +Q    E E E E E E
|------------------|-------------------|
|-(5)--------3---2-|-(2)-------2-------|
|-(4)--------4---2-|-(2)---------4-2-4-|
|------------------|-------------------|
|------------------|-------0-0---------|
|------0-0-0-------|-------------------|


  +Q   E E E E E E   +Q   E E E S S E E
|------------------|---------------------|
|------------------|---------------------|
|------------------|---------------------|
|------------------|---------------------|
|-(2)--2-2-2-----7-|-(7)--7-7-7-------2--|
|------0-0-0-2-4-5-|-(5)--5-5-5-2---2-0--|
|
| +Q   E E E E E E   +Q   E E E S S E E
|------------------|---------------------|
|------------3---2-|-(2)--------2---2-0--|
|-(4)--------4---2-|-(2)--------2---2-0--|
|------------------|---------------------|
|------------------|------0-0-0----------|
|------0-0-0-------|---------------------|


  +Q   E E E E E E   +E  E E E E S S E E
|------------------|---------------------|
|------------------|---------------------|
|------------------|---------------------|
|------------------|---------------------|
|-(2)--2-2-2-----7-|-(7)-5-6-7-----------|
|-(0)--0-0-0-2-4-5-|-(5)-------5-7-5-3-0-|
|
| +Q   E E E E E E   +E  E E E E S S E E
|------------------|---------------------|
|-(0)--------3---2-|-(2)-3-4-5-----------|
|-(0)--------4---2-|-(2)-----------------|
|------------------|-----------7-9-7-5---|
|------------------|---------------------|
|------0-0-0-------|-------------------0-|


  +E   E  E  E  E  E  E  E    +E  E  Q    Q.     E
|-----10-10-10-10-10-10----|------9-----------------|
|-----12-12-12-12-12-12-10-|-(10)---10---10---------|
|--------------------------|---------------------9--|
|--------------------------|---------------------9--|
|--------------------------|------------------------|
|-(0)----------------------|------------------------|
|
| +E   E  E  E  E  E  E  E    +E  E  E E  E  E E E
|--------------------------|---------5-------5------|
|--------------------------|---------5-------5------|
|---------9--------9-------|------------------------|
|---------9--------9-------|---------7-------7------|
|---------7--------7-------|------------------------|
|-(0)--0-----0--0--------5-|--(5)-5----5--5------0--|


  +Q     E  E  E  E  E E   +Q     E  E  +E   E  +E   E
|-------10-10-10-10-10-9-|-(9)---12--------------------|
|-------12-12-12-12-12---|----------14-(14)-14-(14)----|
|-(9)--------------------|-----------------------------|
|-(9)--------------------|--------------------------14-|
|------------------------|--------------------------14-|
|------------------------|-----------------------------|
|
| +E  E  E  E  E  E  E E   +E  E  E  E   E   E   E   E
|------------------------|--------5----------5---------|
|------------------------|--------5----------5---------|
|--------9--------9------|-----------------------------|
|--------9--------9------|--------7----------7---------|
|--------7--------7------|-----------------------------|
|-(0)-0-----0--0-------5-|-(5)-5-----5---5-----------0-|


   +Q     E  E  E  E  E  E    +E   E  Q    Q.      E
|--------------------------|-------------------------|
|--------15-15-15-15-15----|------14-----------------|
|--------16-16-16-16-16-14-|-(14)----14---14---------|
|-(14)---------------------|----------------------14-|
|-(14)---------------------|----------------------14-|
|--------------------------|-------------------------|
|
|  +E  E  E  E  E  E  E  E    +E   E  E E  E  E E  E
|--------------------------|----------5-------5------|
|--------------------------|----------5-------5------|
|---------9--------9-------|-------------------------|
|---------9--------9-------|----------7-------7------|
|---------7--------7-------|-------------------------|
|--(0)-0-----0--0--------5-|--(5)--5----5--5-------0-|


   +E   E  E  E  E  E  E  E
|---------------------------|
|------15-15-15-15-15-15-14-|
|------16-16-16-16-16-16----|
|-(14)----------------------|
|-(14)----------------------|
|---------------------------|
|
|  +E   E  E  E  E  E  E  E
|---------------------------|
|---------------------------|
|----------9--------9-------|
|----------9--------9-------|
|----------7--------7-------|
|--(0)--0-----0--0--------5-|


                          3/4                  4/4
   +E   E  Q    Q    Q      E   E  E  E  E  E    W
|------12----------------|-14-----14-12----13-|-------|
|-(14)----14---14---15---|-----15-------14----|-12----|
|------------------------|--------------------|-------|
|------------------------|--------------------|-------|
|------------------------|--------------------|-------|
|------------------------|--------------------|-------|
|
|  +E   E  E E  E E  E E    Q.        E  Q       W
|----------5------5------|--------------------|-------|
|----------5------5------|--3---------2--2----|-------|
|------------------------|--------------------|--4----|
|----------7------7------|--------------------|-------|
|------------------------|--------------------|-------|
|--(5)--5----5--5------0-|--------------------|-------|


                    2/4         4/4
  Gtr I
  W                   Q    E E   +Q    E E Q   E E
|------------------|---------3-|-(3)---3-3-7-------|
|------------------|-----------|-----------------8-|
|------------------|-----------|-------------------|
|------------------|-----------|-------------------|
|------------------|-----------|-------------------|
|------------------|-----------|-------------------|
|
| Gtr II
| E  E E E E E E E   +E  E E E   +E  E E E E E E E
|------------------|-----------|-------------------|
|------------------|-----------|-------------------|
|------------------|-----------|-------------------|
|------------------|-----------|-----------0-------|
|---10-9-7-5-4-2---|-----2---2-|-(2)-2-4-2-------2-|
|----------------3-|-(3)---3-0-|-(0)-0-0-0-0-3-4-0-|
|
| Gtr III
| H        Q   E E    E  E E E   +E  E E E E E E E
|------------------|-----------|-------------------|
|------------------|-----------|-------------------|
|------------------|-----------|-------4-----4-----|
|------------------|-----------|-------2-----2-----|
|------------------|--2----2---|-------------------|
|----------------3-|-----3---0-|-(0)-0---0-0---0-0-|


  +E  E E E Q   E E   +E  E E E E E E E
|-----------7-------|--------------------|
|-(8)-8-8-8-------6-|-(6)-5-6-5-6-5-6-5--|
|-------------------|--------------------|
|-------------------|--------------------|
|-------------------|--------------------|
|-------------------|--------------------|
|
| +E  E E E E E E E   +E  E E E E E E E
|-------------------|--------------------|
|-------------------|--------------------|
|-------------------|--------------------|
|-----------0-----4-|-(4)-4--------------|
|-(2)-2-4-2---------|-----------2-----2--|
|-(0)-0-0-0-0-3-4-7-|-(7)-7-3-4---3-4----|
|
|  E  E E E E E E E   +E  E E E E E E E
|-----------------7-|-(7)-7--------------|
|-----------------7-|-(7)-7--------------|
|--4------4-----4---|--------------------|
|--2------2-----2---|-----------4-----4--|
|-------------------|-------5-6---5-6----|
|-----0-0---0-0-----|--------------------|


  E E E E +Q    E E   +Q    E E Q   E E
|-3-3-1-0-(0)-----3-|-(3)---3-3-7-------|
|-------------------|-----------------8-|
|-------------------|-------------------|
|-------------------|-------------------|
|-------------------|-------------------|
|-------------------|-------------------|
|
| E E E E +E  E E E   +E  E E E E E E E
|-------------------|-------------------|
|-------------------|-------------------|
|-------------------|-------------------|
|-------------------|-----------0-------|
|-------2-(2)-----2-|-(2)-2-4-2-------2-|
|-3-2-1-0-(0)-3-4-0-|-(0)-0-0-0-0-3-4-0-|
|
| E E E E +E  E E E   +E  E E E E E E E
|-3-2-1-0-(0)-------|-------------------|
|-3-2-1-0-(0)-------|-------------------|
|-------------0-1---|-------4-----4-----|
|-------------------|-------2-----2-----|
|-------------------|-------------------|
|-----------------0-|-(0)-0---0-0---0-0-|


   E  E E E Q   E E   +E  E E E Q   E E
|-----------7-------|-------------------|
|--8--8-8-8-------6-|-(6)-5-6-5-6---6-6-|
|-------------------|-------------------|
|-------------------|-------------------|
|-------------------|-------------------|
|-------------------|-------------------|
|
| +E  E E E E E E E   +E  E E E E E E E
|-------------------|-------------------|
|-------------------|-------------------|
|-------------------|-------------------|
|-----------0-----4-|-(4)-4-------------|
|-(2)-2-4-2---------|-----------2-----2-|
|-(0)-0-0-0-0-3-4-7-|-(7)-7-3-4---3-4---|
|
|  E  E E E E E E E   +E  E E E E E E E
|-----------------7-|-(7)-7-------------|
|-----------------7-|-(7)-7-------------|
|--4------4-----4---|-------------------|
|--2------2-----2---|-----------4-----4-|
|-------------------|-------5-6---5-6---|
|-----0-0---0-0-----|-------------------|


  E E E E +Q   E E    E  E E   E   E E E E
|----------------5-|--5--5-5---5---5-----5-|
|-8-8-6-5-(5)------|-----------------------|
|------------------|-----------------5-5---|
|------------------|-----------------------|
|------------------|-----------------------|
|------------------|-----------------------|
|
| E E E E +Q   E E   +W
|------------------|-----------------------|
|------------------|-----------------------|
|----------------2-|-(2)-------------------|
|----------------2-|-(2)-------------------|
|-------2-(2)----0-|-(0)-------------------|
|-3-2-1-0-(0)------|-----------------------|
|
| E E E E +Q.    E   +E  E S S S S E E E E
|-3-2-1-0-(0)----5-|-(5)-5-5---5---5-----5-|
|-3-2-1-0-(0)----5-|-(5)-5-5---5---5-----5-|
|------------------|-----------------5-6---|
|------------------|-----------------------|
|------------------|-----------------------|
|------------------|-----------------------|


  +E  E E   E   E E E E   +Q     Q   H
|-(5)-5-5---5---5-3-1-3-|-(3)---------------|
|-----------------------|-------------------|
|-----------------------|-------------------|
|-----------------------|-------------------|
|-----------------------|-------------------|
|-----------------------|-------------------|
|
| +H            E E E E   +E   E Q   Q  E E
|-----------------------|-------------------|
|-----------------------|-------------------|
|-(2)-----------2-------|-------------------|
|-(2)-----------2-------|------2-0----------|
|-(0)-----------0-------|------------4--5-7-|
|-----------------3-2-0-|-(0)---------------|
|
| +E  E S S S S E E E E   +E   E Q   Q  E E
|-(5)-5-5---5---5-------|-----12----12------|
|-(5)-5-5---5---5-------|-----12----12------|
|-----------------5-4---|-------------------|
|-----------------------|-------------------|
|-----------------------|-------------------|
|---------------------0-|-(0)-------------0-|


   H         Q  E  E    +E   E  E    E    E  E +E   E
|------------------5-|--(5)--5--5----5----5---------5-|
|--------------------|--------------------------------|
|--------------------|-----------------------5-(5)----|
|--------------------|--------------------------------|
|--------------------|--------------------------------|
|--------------------|--------------------------------|
|
| +E   E Q   Q  E  E    +W
|--------------------|--------------------------------|
|--------------------|--------------------------------|
|------------------2-|--(2)---------------------------|
|---------------2--2-|--(2)---------------------------|
|-(7)--7-5---4-----0-|--(0)---------------------------|
|--------------------|--------------------------------|
|
| +E   E Q   Q  E  E    +E   E  S S  S S  E  E  E   E
|-----12----12-------|--------------------------------|
|-----12----12-------|--------------------------------|
|-----------------14-|-(14)-14-14---14---14--------14-|
|-----------------14-|-(14)-14-14---14---14--------14-|
|--------------------|----------------------15-16-----|
|-(0)----------------|--------------------------------|


   +E   E  E    E    E  E  E E   +E   E +Q    H
|--(5)--5--5----5----5-----7---|---------------------|
|-----------------------6----6-|-(6)--8-(8)----------|
|------------------------------|---------------------|
|------------------------------|---------------------|
|------------------------------|---------------------|
|------------------------------|---------------------|
|
|  +H                E  E  E E   +E   E  Q    Q  E E
|------------------------------|---------------------|
|------------------------------|---------------------|
|--(2)---------------2---------|---------------------|
|--(2)---------------2---------|------2--0-----------|
|--(0)---------------0---------|--------------4--5-7-|
|-----------------------3--2-0-|-(0)-----------------|
|
|  +E   E  S S  S S  E  E  E E   +E   E  Q    Q  E E
|------------------------------|-----12------12------|
|------------------------------|-----12------12------|
|-(14)-14-14---14---14---------|---------------------|
|-(14)-14-14---14---14---------|---------------------|
|----------------------15-14---|---------------------|
|----------------------------0-|-(0)---------------0-|


   H         E E E  E    +E   E  E  E   E   E  +E     E
|-------------------8-|--(8)--8--8--8---8-------------8-|
|--------------6-8-10-|-(10)-10-10-10--10--10-(10)---10-|
|---------------------|--------------------10-(10)------|
|---------------------|---------------------------------|
|---------------------|---------------------------------|
|---------------------|---------------------------------|
|
| +E   E Q   Q   E  E    +H.                    E     E
|---------------------|-------------------------------5-|
|-------------------7-|--(7)--------------------------5-|
|-------------------6-|--(6)--------------------------2-|
|-------------------4-|--(4)----------------------------|
|-(7)--7-5---4--------|---------------------------------|
|---------------------|---------------------------------|
|
| +E   E Q   Q   E  E    +H            +E   E   S  S  E
|-----12----12--------|---------------------------------|
|-----12----12--------|---------------------------------|
|------------------11-|-(11)----------(11)-11---0----14-|
|------------------11-|-(11)----------(11)-11---0----14-|
|---------------------|-------------------------0----12-|
|-(0)--------------14-|-(14)----------(14)-14-----------|


   +E   E  E  E   E   E  +E     E    +E   E  E  E  E  E  E  E
|--(8)--8--8--8---8------------10-|-(10)-10--8--8--7--8--8-10-|
|-(10)-10-10-10--10--10-(10)---12-|-(12)-12-10--8--6--8-10-10-|
|--------------------10-(10)------|---------------------------|
|---------------------------------|---------------------------|
|---------------------------------|---------------------------|
|---------------------------------|---------------------------|
|
|  +H.                    E     E    +W
|--(5)--------------------------7-|--(7)----------------------|
|--(5)--------------------------7-|--(7)----------------------|
|--(2)--------------------------4-|--(4)----------------------|
|---------------------------------|---------------------------|
|---------------------------------|---------------------------|
|---------------------------------|---------------------------|
|
|  +H            +E   E   S  S  E    +E   E  E  E  E  E  E  E
|---------------------------------|---------------------------|
|---------------------------------|---------------------------|
|-(14)----------(14)-14---0----16-|-(16)-16-16-16-16-16-16-16-|
|-(14)----------(14)-14---0----16-|-(16)-16-16-16-16-16-16-16-|
|-(12)----------(12)-12---0----14-|-(14)-14-14-14-14-14-14-14-|
|---------------------------------|---------------------------|


   Q  Q  E E  E  E    +Q    Q    Q      E  E
|-10---------------|-------------------------|
|-12---------------|-------------------------|
|------------------|-------12----------------|
|----------9-10-12-|-(12)-------14-----14----|
|------------------|----------------------15-|
|------------------|-------------------------|
|
|  Q  Q  Q    E  E    +H        +E   E  E  E
|--7---------------|-------------------------|
|--7-------------5-|--(5)-------(5)--5-------|
|--4-------------4-|--(4)-------(4)--4-----2-|
|----------------2-|--(2)-------(2)--2-----2-|
|------------------|-----------------------0-|
|------------------|-------------------------|
|
|  Q  Q  Q    E  E    +Q    E E  E   E  E  E
|------------------|-------------------------|
|------------------|-------------------------|
|-16---------------|----------------------14-|
|-16------------14-|-(14)--14-------14----14-|
|-14------------14-|-(14)--14-------14----12-|
|---------------12-|-(12)--12-0--0--12-------|


    E   E  E  E  Q    E  E     E   E  E  E  E  E  E  E
|--------------------------|---------------------------|
|--------------------------|---------------------------|
|--------------------------|---------------------------|
|--14-----14----14------14-|--15--14-15-14-15-14-15-14-|
|------15----15------------|---------------------------|
|--------------------------|---------------------------|
|
|  +Q      Q     E  E E  E    +E   E  E  E  E  E  E  E
|--------------------------|---------------------------|
|--------------------------|---------------------------|
|--(2)-----2---------------|---------------------------|
|--(2)-----0-------------4-|--(4)--4--------4--------4-|
|--(0)-----0-----4--2-0--2-|--(2)--2-------------------|
|--------------------------|----------3--4--7--3--4--7-|
|
|  +Q      E  E  E  E E  E    +E   E  E  E  E  E  E  E
|--------------------------|---------------------------|
|-----------------------12-|-(12)-12-------------------|
|-(14)----14-------14---11-|-(11)-11-------------------|
|-(14)----14-------14------|----------------9--------9-|
|-(12)----12--0--0-12------|---------10-11----10-11----|
|--------------------------|---------------------------|


   Q    E E +Q    Q      Q   Q    Q    E  E
|---------------------|---------------------|
|---------------------|------8--------------|
|-12---10-9-(9)-------|-----------9----9----|
|---------------------|------------------10-|
|---------------------|---------------------|
|---------------------|---------------------|
|
|  E E  E E +E  E E E   +H       +E  E E  E
|---------------3-----|---------------------|
|---------------3-7-5-|-(5)------(5)-5------|
|---------------0-6-4-|-(4)------(4)-4----2-|
|-----------------4-2-|-(2)------(2)-2----2-|
|---------------------|-------------------0-|
|--3-2--1-0-(0)-------|---------------------|
|
|  E E  E E +E  E E E   +Q   E E  E  E E  E
|---------------3-----|-------------------5-|
|--8-7--6-5-(5)-3-7-5-|-(5)--5-------5----5-|
|--7-6--5-4-(4)-0-6-4-|-(4)--4-------4----2-|
|-----------------4-2-|-(2)--2-------2------|
|---------------------|---------------------|
|---------------------|--------0--0---------|


   E   E E  E Q   E  E    +E  E  E E  E E  E E
|----------------------|-----------------------|
|----------------------|-----------------------|
|--9-----9----9-----10-|-(10)-9-10-9-10-9-10-9-|
|-----10---10----------|-----------------------|
|----------------------|-----------------------|
|----------------------|-----------------------|
|
| +Q     Q    E E E  E    +E  E  E E  E E  E E
|----------------------|-----------------------|
|----------------------|-----------------------|
|-(2)----2-------------|-----------------------|
|-(2)----0-----------4-|--(4)-4-------4------4-|
|-(0)----0----4-2-0--2-|--(2)-2----------------|
|----------------------|---------3-4--7-3--4-7-|
|
| +Q     E  E E E E  E    +E  E  E E  E E  E E
|-(5)----5------5----7-|--(7)-7----------------|
|-(5)----5------5----7-|--(7)-7----------------|
|-(2)----2------2------|--------------4------4-|
|----------------------|---------5-6----5--6---|
|-----------0-0--------|-----------------------|
|----------------------|-----------------------|


  E E E E +E   E   E E   +Q   Q   H
|--------------7---5-3-|-(3)--------------|
|-8-8-6-5-(5)--5---5-5-|-(5)--------------|
|----------------------|------------------|
|----------------------|------------------|
|----------------------|------------------|
|----------------------|------------------|
|
| E E E E +E   S S E E   +Q   E E E E E E
|----------------------|------------------|
|----------------------|------------------|
|----------------------|------------------|
|----------------------|------------------|
|----------------------|----------------7-|
|-3-2-1-0-(0)--2---2-0-|-(0)--0-0-0-2-4-5-|
|
| E E E E +E   S S E E   +Q   E E E E E E
|-3-2-1-0-(0)----------|------------------|
|-3-2-1-0-(0)--7---7-5-|-(5)--------3---2-|
|-------------11---6-4-|-(4)--------4---2-|
|-------------11-------|------------------|
|----------------------|------------------|
|----------------------|------0-0-0-------|


   W                       W
|-----------------------|-------------------|
|-----------------------|-------------------|
|-----------------------|-------------------|
|-----------------------|-------------------|
|-----------------------|-------------------|
|-----------------------|-------------------|
|
| +E  E E E S S E   E E   +Q   E E E E E E
|-----------------------|-------------------|
|-----------------------|-------------------|
|-----------------------|-------------------|
|-----------------------|-------------------|
|-(7)-7-7-7-----------2-|-(2)--2-2-2-----7--|
|-(5)-5-5-5-2---2---0-0-|-(0)--0-0-0-2-4-5--|
|
| +Q    E E E   S S E E   +Q   E E E E E E
|---------------2---2---|-------------------|
|-(2)-----------2---2-5-|-(5)--------3---2--|
|-(2)-----------6-----4-|-(4)--------4---2--|
|-----------------------|-------------------|
|-------0-0-0-----------|-------------------|
|-----------------------|------0-0-0--------|


  Gtr II
  +Q   E E E E E E   +Q   E E E E E E   +E  E E E E E E E   +E  E E E E E E E
|------------------|------------------|-------------------|-------------------|
|------------------|------------------|-------------------|-------------------|
|------------------|------------------|-------------------|-------------------|
|------------------|----------------4-|-(4)-4-4-4-4-------|-------------------|
|-(7)--7-7-4-2-0-2-|-(2)--2-2-2-2-2-2-|-(2)-2-2-2-2-----2-|-(2)-2-2-2-2-2-2-2-|
|-(5)--5-5---------|------0-0-0-0-0---|-------------3-2-0-|-(0)-0-0-0-0-0-0-0-|
|
| Gtr III
| +Q   E E E E E E   +Q   E E E E E E   +E  E E E E E E E   +E  E E E E E E E
|------------------|----------------7-|-(7)-7-7-7-7-------|-------------------|
|-(2)------2-------|----------------7-|-(7)-7-7-7-7-------|-------------------|
|-(2)--------4-2-4-|-(4)--------------|-------------------|-------------------|
|------------------|------------------|-------------5-4-2-|-(2)---------------|
|------0-0---------|------------------|-------------------|-----2-2-2-2-2-2-2-|
|------------------|------0-0-0-0-0---|-------------------|-----0-0-0-0-0-0-0-|


  Gtr I
  H             Q      E  E   +E  E E E  Q        E   E
|-------------------------3-|-(3)-3-3-3--7--------------|
|---------------------------|-------------------------8-|
|---------------------------|---------------------------|
|---------------------------|---------------------------|
|---------------------------|---------------------------|
|---------------------------|---------------------------|
|
| Gtr II
| E S S S S S S S S E +E  E   +E  E E E  E   E    E   E
|---------------------------|---------------------------|
|---------------------------|---------------------------|
|---------------------------|---------------------------|
|---------------------------|------------0--------------|
|-2-0---0---0---0---------2-|-(2)-2-4-2---------------2-|
|-0-0---0---0---0---3-(3)-0-|-(0)-0-0-0--0---3----4---0-|
|
| Gtr III
| Q     Q       E   E +E  E   +E  E E E +E   S S  S S E
|---------------------------|---------------------------|
|---------------------------|---------------15---17-----|
|---------------------------|---------------19---19-----|
|---------------------------|---------------------------|
|-2-------------------------|---------------------------|
|-0-----------------3-(3)-0-|-(0)-0-0-0-(0)-----------0-|


  +E  E E E Q       E    E     E   E  E  E  E  E  E  E
|-----------7--------------|----------------------------|
|-(8)-8-8-8--------------5-|---6---5--6--5--6--5--6--5--|
|--------------------------|----------------------------|
|--------------------------|----------------------------|
|--------------------------|----------------------------|
|--------------------------|----------------------------|
|
| +E  E E E E  E    E    E    +E   E  E  E  E  E  E  E
|--------------------------|----------------------------|
|--------------------------|----------------------------|
|--------------------------|----------------------------|
|-----------0------------4-|--(4)--4--------------------|
|-(2)-2-4-2----------------|----------------2--------2--|
|-(0)-0-0-0-0--3----4----7-|--(7)--7--3--4-----3--4-----|
|
| +E  E E E E  S S  S S  E    +E   E  E  E  E  E  E  E
|--------------------------|----------------------------|
|-------------17---17------|----------------------------|
|-------------19---19---16-|-(16)-16--------------------|
|-----------------------16-|-(16)-16--------------------|
|--------------------------|---------------14-------14--|
|-(0)-0-0-0-0--------------|---------15-16----15-16-----|


   Q     E E +Q     E E   +Q    Q    Q        E   E
|--3-----1-0-(0)------3-|-(3)---3----7--------------|
|-----------------------|-------------------------8-|
|-----------------------|---------------------------|
|-----------------------|---------------------------|
|-----------------------|---------------------------|
|-----------------------|---------------------------|
|
|  E  E  E E +E   E E E   +E  E E E  E   E    E   E
|-----------------------|---------------------------|
|-----------------------|---------------------------|
|-----------------------|---------------------------|
|-----------------------|------------0--------------|
|----------2-(2)------2-|-(2)-2-4-2---------------2-|
|--3--2--1-0-(0)--3-4-0-|-(0)-0-0-0--0---3----4---0-|
|
|  E  E  E E +E   E E E   +E  E E E +E   S S  S S E
|-----------------------|---------------------------|
|-----------------------|---------------15---17-----|
|-12-11-10-9-(9)--------|---------------19---19-----|
|-12-11-10-9-(9)--------|---------------------------|
|----------------10-9---|---------------------------|
|---------------------0-|-(0)-0-0-0-(0)-----------0-|


  +Q    E E Q       E    E    +E   E  E  E  E  E  E  E
|-----------7--------------|---------------------------|
|-(8)---8-8--------------6-|--(6)--5--6--5--6--5--6--5-|
|--------------------------|---------------------------|
|--------------------------|---------------------------|
|--------------------------|---------------------------|
|--------------------------|---------------------------|
|
| +E  E E E E  E    E    E    +E   E  E  E  E  E  E  E
|--------------------------|---------------------------|
|--------------------------|---------------------------|
|--------------------------|---------------------------|
|-----------0------------4-|--(4)--4-------------------|
|-(2)-2-4-2----------------|----------------2--------2-|
|-(0)-0-0-0-0--3----4----7-|--(7)--7--3--4-----3--4----|
|
| +E  E E E E  S S  S S  E    +E   E  E  E  E  E  E  E
|--------------------------|---------------------------|
|-------------17---17------|---------------------------|
|-------------19---19---16-|-(16)-16-------------------|
|-----------------------16-|-(16)-16-------------------|
|--------------------------|---------------14-------14-|
|-(0)-0-0-0-0--------------|---------15-16----15-16----|


  E E +E  E  Q   E E    E  E E   E   E E E E
|-3-1-(1)-0--0---0-5-|--5--5-5---5---5-----5-|
|--------------------|-----------------------|
|--------------------|-----------------5-5---|
|--------------------|-----------------------|
|--------------------|-----------------------|
|--------------------|-----------------------|
|
| E E  E  E +Q.    E   +W
|--------------------|-----------------------|
|--------------------|-----------------------|
|------------------2-|-(2)-------------------|
|------------------2-|-(2)-------------------|
|---------2-(2)----0-|-(0)-------------------|
|-3-2--1--0-(0)------|-----------------------|
|
| E E +Q     Q.    E   +E  E S S S S E E E E
|------------------5-|-(5)-5-5---5---5-----5-|
|------------------5-|-(5)-5-5---5---5-----5-|
|--------------------|-----------------5-6---|
|--------------------|-----------------------|
|--------------------|-----------------------|
|-0-3-(3)----0-------|-----------------------|


  +E  E E   E   E E E E   +Q     Q   H
|-(5)-5-5---5---5-3-1-3-|-(3)---------------|
|-----------------------|-------------------|
|-----------------------|-------------------|
|-----------------------|-------------------|
|-----------------------|-------------------|
|-----------------------|-------------------|
|
| +H            E E E E   +E   E Q   Q  E E
|-----------------------|-------------------|
|-----------------------|-------------------|
|-(2)-----------2-------|-------------------|
|-(2)-----------2-------|------2-0----------|
|-(0)-----------0-------|------------4--5-7-|
|-----------------3-2-0-|-(0)---------------|
|
| +E  E S S S S E E E E   +E   E Q   Q  E E
|-(5)-5-5---5---5-------|-----12----12------|
|-(5)-5-5---5---5-------|-----12----12------|
|-----------------5-4---|-------------------|
|-----------------------|-------------------|
|-----------------------|-------------------|
|---------------------0-|-(0)-------------0-|


   H         Q  E  E    +E   E  E    E    E  E +E   E
|------------------5-|--(5)--5--5----5----5---------5-|
|--------------------|--------------------------------|
|--------------------|-----------------------5-(5)----|
|--------------------|--------------------------------|
|--------------------|--------------------------------|
|--------------------|--------------------------------|
|
| +E   E Q   Q  E  E    +W
|--------------------|--------------------------------|
|--------------------|--------------------------------|
|------------------2-|--(2)---------------------------|
|---------------2--2-|--(2)---------------------------|
|-(7)--7-5---4-----0-|--(0)---------------------------|
|--------------------|--------------------------------|
|
| +E   E Q   Q  E  E    +E   E  S S  S S  E  E  E   E
|-----12----12-------|--------------------------------|
|-----12----12-------|--------------------------------|
|-----------------14-|-(14)-14-14---14---14--------14-|
|-----------------14-|-(14)-14-14---14---14--------14-|
|--------------------|----------------------15-16-----|
|-(0)----------------|--------------------------------|


   +E   E  E    E    E  E  E E   +E   E +Q    H
|--(5)--5--5----5----5-----7---|---------------------|
|-----------------------6----6-|-(6)--8-(8)----------|
|------------------------------|---------------------|
|------------------------------|---------------------|
|------------------------------|---------------------|
|------------------------------|---------------------|
|
|  +H                E  E  E E   +E   E  Q    Q  E E
|------------------------------|---------------------|
|------------------------------|---------------------|
|--(2)---------------2---------|---------------------|
|--(2)---------------2---------|------2--0-----------|
|--(0)---------------0---------|--------------4--5-7-|
|-----------------------3--2-0-|-(0)-----------------|
|
|  +E   E  S S  S S  E  E  E E   +E   E  Q    Q  E E
|------------------------------|-----12------12------|
|------------------------------|-----12------12------|
|-(14)-14-14---14---14---------|---------------------|
|-(14)-14-14---14---14---------|---------------------|
|----------------------15-14---|---------------------|
|----------------------------0-|-(0)---------------0-|


   H         E E E  E    +E   E  E  E   E   E  +E     E
|-------------------8-|--(8)--8--8--8---8-------------8-|
|--------------6-8-10-|-(10)-10-10-10--10--10-(10)---10-|
|---------------------|--------------------10-(10)------|
|---------------------|---------------------------------|
|---------------------|---------------------------------|
|---------------------|---------------------------------|
|
| +E   E Q   Q   E  E    +H.                    E     E
|---------------------|-------------------------------5-|
|-------------------7-|--(7)--------------------------5-|
|-------------------6-|--(6)--------------------------2-|
|-------------------4-|--(4)----------------------------|
|-(7)--7-5---4--------|---------------------------------|
|---------------------|---------------------------------|
|
| +E   E Q   Q   E  E    +H            +E   E   S  S  E
|-----12----12--------|---------------------------------|
|-----12----12--------|---------------------------------|
|------------------11-|-(11)----------(11)-11---0----14-|
|------------------11-|-(11)----------(11)-11---0----14-|
|---------------------|-------------------------0----12-|
|-(0)--------------14-|-(14)----------(14)-14-----------|


   +E   E  E  E   E   E  +E     E    +E   E  E  E  E  E  E  E
|--(8)--8--8--8---8------------10-|-(10)-10--8--8--7--8--8-10-|
|-(10)-10-10-10--10--10-(10)---12-|-(12)-12-10--8--6--8-10-10-|
|--------------------10-(10)------|---------------------------|
|---------------------------------|---------------------------|
|---------------------------------|---------------------------|
|---------------------------------|---------------------------|
|
|  +H.                    E     E    +W
|--(5)--------------------------7-|--(7)----------------------|
|--(5)--------------------------7-|--(7)----------------------|
|--(2)--------------------------4-|--(4)----------------------|
|---------------------------------|---------------------------|
|---------------------------------|---------------------------|
|---------------------------------|---------------------------|
|
|  +H            +E   E   S  S  E    +E   E  E  E  E  E  E  E
|---------------------------------|---------------------------|
|---------------------------------|---------------------------|
|-(14)----------(14)-14---0----16-|-(16)-16-16-16-16-16-16-16-|
|-(14)----------(14)-14---0----16-|-(16)-16-16-16-16-16-16-16-|
|-(12)----------(12)-12---0----14-|-(14)-14-14-14-14-14-14-14-|
|---------------------------------|---------------------------|


   Q  Q  E E  E  E    +Q    Q    Q      E  E
|-10---------------|-------------------------|
|-12---------------|-------------------------|
|------------------|-------12----------------|
|----------9-10-12-|-(12)-------14-----14----|
|------------------|----------------------15-|
|------------------|-------------------------|
|
|  Q  Q  Q    E  E    +H        +E   E  E  E
|--7---------------|-------------------------|
|--7-------------5-|--(5)-------(5)--5-------|
|--4-------------4-|--(4)-------(4)--4-----2-|
|----------------2-|--(2)-------(2)--2-----2-|
|------------------|-----------------------0-|
|------------------|-------------------------|
|
|  Q  Q  Q    E  E    +Q    E E  E   E  E  E
|------------------|-------------------------|
|------------------|-------------------------|
|-16---------------|----------------------14-|
|-16------------14-|-(14)--14-------14----14-|
|-14------------14-|-(14)--14-------14----12-|
|---------------12-|-(12)--12-0--0--12-------|


    E   E  E  E  Q    E  E     E   E  E  E  E  E  E  E
|--------------------------|---------------------------|
|--------------------------|---------------------------|
|--------------------------|---------------------------|
|--14-----14----14------14-|--15--14-15-14-15-14-15-14-|
|------15----15------------|---------------------------|
|--------------------------|---------------------------|
|
|  +Q      Q     E  E E  E    +E   E  E  E  E  E  E  E
|--------------------------|---------------------------|
|--------------------------|---------------------------|
|--(2)-----2---------------|---------------------------|
|--(2)-----0-------------4-|--(4)--4--------4--------4-|
|--(0)-----0-----4--2-0--2-|--(2)--2-------------------|
|--------------------------|----------3--4--7--3--4--7-|
|
|  +Q      E  E  E  E E  E    +E   E  E  E  E  E  E  E
|--------------------------|---------------------------|
|-----------------------12-|-(12)-12-------------------|
|-(14)----14-------14---11-|-(11)-11-------------------|
|-(14)----14-------14------|----------------9--------9-|
|-(12)----12--0--0-12------|---------10-11----10-11----|
|--------------------------|---------------------------|


   Q    E E +Q    Q      Q   Q    Q    E  E
|---------------------|---------------------|
|---------------------|------8--------------|
|-12---10-9-(9)-------|-----------9----9----|
|---------------------|------------------10-|
|---------------------|---------------------|
|---------------------|---------------------|
|
|  E E  E E +E  E E E   +H       +E  E E  E
|---------------3-----|---------------------|
|---------------3-7-5-|-(5)------(5)-5------|
|---------------0-6-4-|-(4)------(4)-4----2-|
|-----------------4-2-|-(2)------(2)-2----2-|
|---------------------|-------------------0-|
|--3-2--1-0-(0)-------|---------------------|
|
|  E E  E E +E  E E E   +Q   E E  E  E E  E
|---------------3-----|-------------------5-|
|--8-7--6-5-(5)-3-7-5-|-(5)--5-------5----5-|
|--7-6--5-4-(4)-0-6-4-|-(4)--4-------4----2-|
|-----------------4-2-|-(2)--2-------2------|
|---------------------|---------------------|
|---------------------|--------0--0---------|


   E   E E  E Q   E  E    +E  E  E E  E E  E E
|----------------------|-----------------------|
|----------------------|-----------------------|
|--9-----9----9-----10-|-(10)-9-10-9-10-9-10-9-|
|-----10---10----------|-----------------------|
|----------------------|-----------------------|
|----------------------|-----------------------|
|
| +Q     Q    E E E  E    +E  E  E E  E E  E E
|----------------------|-----------------------|
|----------------------|-----------------------|
|-(2)----2-------------|-----------------------|
|-(2)----0-----------4-|--(4)-4-------4------4-|
|-(0)----0----4-2-0--2-|--(2)-2----------------|
|----------------------|---------3-4--7-3--4-7-|
|
| +Q     E  E E E E  E    +E  E  E E  E E  E E
|-(5)----5------5----7-|--(7)-7----------------|
|-(5)----5------5----7-|--(7)-7----------------|
|-(2)----2------2------|--------------4------4-|
|----------------------|---------5-6----5--6---|
|-----------0-0--------|-----------------------|
|----------------------|-----------------------|


  E E E E +Q    Q      H        Q   E  E
|-------------------|--------------------|
|-8-6-8-------------|-----------------10-|
|-------9-(9)-------|--------------------|
|-------------------|--------------------|
|-------------------|--------------------|
|-------------------|--------------------|
|
| E E E E +E  E E E   +E  E E E E E E  E
|-------------------|--------------------|
|-------------------|--------------------|
|-------------------|--------------------|
|-------------------|-----------0------2-|
|-----------------2-|-(2)-2-4-2---2----0-|
|-3-2-1-0-(0)-3-2-0-|-(0)-0-0-0-0-0------|
|
| E E E E +E  E E E   +Q    E E E E E  E
|-3-2-1-0-(0)-3-----|------------------5-|
|-3-2-1-0-(0)-3-7-5-|-(5)---5-----5----5-|
|-------------0-6-4-|-(4)---4-----4----2-|
|---------------4-2-|-(2)---2-----2------|
|-------------------|--------------------|
|-------------------|---------0-0--------|


   +Q     E  E  E  E E  E    +E  E Q   Q   E  E
|-------------------------|---------------------|
|-(10)---10-12------------|------------------10-|
|--------------12-10-9-10-|-(10)----------------|
|-------------------------|---------------------|
|-------------------------|---------------------|
|-------------------------|---------------------|
|
|  +E  E  E  E  E  E E  E    +E  E E E E E E  E
|-------------------------|---------------------|
|-------------------------|---------------------|
|-------------------------|---------------------|
|--(2)-2--4---------------|------------0------2-|
|--(0)-0--0--7--4--2-0--2-|--(2)-2-4-2---2----0-|
|------------5----------0-|--(0)-0-0-0-0-0------|
|
|  +Q     E  E  E  E E  E    +Q    E E E E E  E
|--(5)----5--------5------|-------------------5-|
|--(5)----5--------5----5-|--(5)---5-----5----5-|
|--(2)----2--------2----4-|--(4)---4-----4----2-|
|-----------------------2-|--(2)---2-----2------|
|------------0--0---------|---------------------|
|-------------------------|----------0-0--------|


   +Q     E  E  E  E E  E    +E  E +E  E Q   E E
|-------------------------|--------------------7-|
|-(10)---10-12------------|------8-(8)-----------|
|--------------12-10-9-10-|-(10)-----------------|
|-------------------------|----------------------|
|-------------------------|----------------------|
|-------------------------|----------------------|
|
|  +E  E  E  E  E  E E  E    +H.             E E
|-------------------------|----------------------|
|-------------------------|----------------------|
|-------------------------|----------------------|
|--(2)-2--4---------------|--------------------4-|
|--(0)-0--0--7--4--2-0--2-|--(2)---------------2-|
|------------5----------0-|--(0)-----------------|
|
|  +Q     E  E  E  E E  E    +Q     E  E E E E E
|--(5)----5--------5------|--------------------7-|
|--(5)----5--------5----5-|--(5)----5----------7-|
|--(2)----2--------2----4-|--(4)----4------------|
|-----------------------2-|--(2)----2------------|
|------------0--0---------|----------------------|
|-------------------------|------------0-0-0-0---|


  +E  E E E E E E E   +Q    Q   H
|-(7)-7-7-7-7-5-3---|-------------------|
|-----------------5-|-(5)---------------|
|-------------------|-------------------|
|-------------------|-------------------|
|-------------------|-------------------|
|-------------------|-------------------|
|
| +E  E E E E E E E   +E  E E E E E E E
|-------------------|-------------------|
|-------------------|-------------------|
|-------------------|-------------------|
|-(4)-4-4-4-4-------|-------------------|
|-(2)-2-2-2-2-----2-|-(2)-2-2-2-2-2-2-2-|
|-------------3-2-0-|-(0)-0-0-0-0-0-0-0-|
|
| +E  E E E E E E E   +E  E E E E E E E
|-(7)-7-7-7-7-------|-------------------|
|-(7)-7-7-7-7-------|-------------------|
|-------------------|-------------------|
|-------------5-4-2-|-(2)---------------|
|-------------------|-----2-2-2-2-2-2-2-|
|-------------------|-----0-0-0-0-0-0-0-|


  Gtr II
  Q  Q  E E E E   +E   E  E  E  E  E  E  E
|---------------|--------------------------|
|-------5-6-7-8-|-(8)----12----10----10-12-|
|---------------|--------------------------|
|---------------|--------------------------|
|-2--2----------|-----10----10----10-------|
|-0--0----------|--------------------------|
|
| Gtr III
| Q  Q  E E E E   +Q      E  E  E  E  E  E
|---------------|--------------------------|
|-------5-6-7-8-|-(8)-----8--------8-------|
|-------4-5-6-7-|-(7)-----7--------7-------|
|---------------|--------------------------|
|-2--2----------|--------------------------|
|-0--0----------|------------0--0-----0--0-|


   +E   E  E  E E  E E E   +Q   Q   E E E  E
|------------------------|-------------------|
|-(12)----10----8-10-8---|----------------10-|
|------------------------|------9---7-9----9-|
|------------------------|------9---7-9------|
|------10----10----------|-------------------|
|----------------------0-|-(0)---------------|
|
|   E   E  E  E E  E E E   +Q   E E E E E  E
|------------------------|-------------------|
|---8-----------8--7-6-5-|-(5)--5-----5------|
|---7-----------7--6-5-4-|-(4)--4-----4------|
|------------------------|-------------------|
|------------------------|-------------------|
|-------0--0--0----------|--------0-0---0--0-|


   +E  E E E E E E E    S  S S S E S S E E S S S S   S S  E  +S  S E  E  E E E
|--------------3---3-|-----------5-----5-3-5-------|---------------------------|
|-(10)-8-----5---5---|--5----5---5-5---5-3-5---5---|-5---14-(14)-----12-10-8---|
|--(9)-7-9-7---------|--4----4-----4-------4---4---|-4---14-(14)-------------9-|
|--------9-7---------|--5----5-----5-----------5---|-5-------------------------|
|--------------------|-----------------------------|---------------------------|
|--------------------|-----------------------------|---------------------------|
|
|   E  E E E E E E E   +Q        E E   E E E   E     E    E   E    E  E  E E E
|--------------------|-----------------------------|---------------------------|
|---5--------5-6-7-8-|-(8)-------8-------8---------|-8----------------8--7-6-5-|
|---4--------4-5-6-7-|-(7)-------7-------7---------|-7----------------7--6-5-4-|
|--------------------|-----------------------------|---------------------------|
|--------------------|-----------------------------|---------------------------|
|------0-0-0---------|-------------0---0---0---0---|------0---0----0-----------|


   E  E  Q    E  E  E  E    S S  S  S  E  E  Q   E  E
|------------15----------|----------------------------|
|-----8-10------15-15----|-15---15----15-----------17-|
|--9------------------16-|-19------16----16-----------|
|------------------------|----------------------------|
|------------------------|----------------------------|
|------------------------|----------------------------|
|
| +Q     E E  E  E  E  E    E    E     E  E +Q.     E
|------------------------|----------------------------|
|-(5)----5-------5-------|--5-------------5-(5)-----5-|
|-(4)----4-------4-------|--4-------------4-(4)-----5-|
|------------------------|--------------------------5-|
|------------------------|--------------------------3-|
|----------0--0-----0--0-|-------0-----0--------------|


   +E   E  S S  E  S  S  E E  E
|----------------------------14-|
|-(17)-17-15---17-15-15-13------|
|---------19------19------------|
|-------------------------------|
|-------------------------------|
|-------------------------------|
|
|  +E   E  Q       E     E E  E
|-----------------------------2-|
|--(5)--5--6-------5-----5----3-|
|--(5)--5--5-------5-----5----2-|
|--(5)--5--5-------5-----5----0-|
|--(3)--3--3-------3-----3------|
|-------------------------------|


   +E   E  S S  E  S  S  E E  E    +E   E  S S  E  S  S  E E  E
|-(14)-14-----------------------|----------------------------14-|
|---------17---19-17-17-15---17-|-(17)-17-15---17-15-15-13------|
|---------21------21------------|---------19------19------------|
|-------------------------------|-------------------------------|
|-------------------------------|-------------------------------|
|-------------------------------|-------------------------------|
|
|  +E   E  Q       E     E E  E    +E   E  Q       E     E E  E
|--(2)--2--3-------2-----2------|-----------------------------2-|
|--(3)--3--3-------3-----3----5-|--(5)--5--6-------5-----5----3-|
|--(2)--2--2-------2-----2----5-|--(5)--5--5-------5-----5----2-|
|--(0)--0--0-------0-----0----5-|--(5)--5--5-------5-----5----0-|
|-----------------------------3-|--(3)--3--3-------3-----3------|
|-------------------------------|-------------------------------|


   +E   E  S S  E  S  S  S  S  S  S  E
|-(14)-14---------17----------17--------|
|---------17---19----19-20-19----19-17--|
|---------21----------------------------|
|---------------------------------------|
|---------------------------------------|
|---------------------------------------|
|
|  +E   E  Q       E     E     E     E
|--(2)--2--3-------2-----2--------------|
|--(3)--3--3-------3-----3-----------5--|
|--(2)--2--2-------2-----2-----------5--|
|--(0)--0--0-------0-----0-----------5--|
|------------------------------------3--|
|---------------------------------------|


   +E   E  S S  E  S  S  E E  E    +E   E  S S  E  E  E  E  E
|----------------------------14-|-(14)-14---------------------|
|-(17)-17-15---17-15-15-13------|---------17---19-19-20-19-21-|
|---------19------19------------|---------21------------------|
|-------------------------------|-----------------------------|
|-------------------------------|-----------------------------|
|-------------------------------|-----------------------------|
|
|  +E   E  Q       E     E E  E    +E   E  Q       E  E  E  E
|-----------------------------2-|--(2)--2--3-------2--2--3--4-|
|--(5)--5--6-------5-----5----3-|--(3)--3--3-------3--3--4--5-|
|--(5)--5--5-------5-----5----2-|--(2)--2--2-------2--2--3--4-|
|--(5)--5--5-------5-----5----0-|--(0)--0--0-------0--0--1--4-|
|--(3)--3--3-------3-----3------|-----------------------------|
|-------------------------------|-----------------------------|


   +H       H         E E E E E E E E
|-------------------|------------------|
|-(21)--------------|------------------|
|----------21-------|---0--------------|
|-------------------|-----4-2----------|
|-------------------|---------------2--|
|-------------------|---------3-2-1-0--|
|
|  +Q.   E  E E E E   Q   Q   E E E E
|--(4)--------------|------------------|
|--(5)--------------|------------------|
|--(4)--------------|------------------|
|--(4)--------------|------------------|
|--------2--2-2-2-2-|-2-------------2--|
|--------0--0-0-0-0-|-0-------3-2-1-0--|


  +Q   Q  E E E E   +Q   Q  E E E E
|-----------------|-----------------|
|-----------------|-----------------|
|-----------------|-----------------|
|-----------------|-----------------|
|-(2)--2--------7-|-(7)--7--------2-|
|-(0)--0--0-2-4-5-|-(5)--5--5-3-2-0-|
|
| +Q   Q  Q   E E   +Q   Q  Q   E E
|-----------------|-----------------|
|-----------------|-----------------|
|-----------------|-----------------|
|---------------2-|-(2)--2----------|
|-(2)--2--------0-|-(0)--0--------2-|
|-(0)--0----------|---------------0-|


  +E  E Q  E E E E   +Q   Q  S S S S S S S S
|------------------|-------------------------|
|------------------|-------------------------|
|------------------|---------4-2---0---------|
|------------------|-----------------4-2-----|
|-(2)---2--------7-|-(7)--7----------------2-|
|-(0)---0--0-2-4-5-|-(5)--5----------------0-|
|
|  Q    Q  E E E E   +Q   Q  Q       E   E
|------------------|-------------------------|
|------------------|-------------------------|
|------------------|-------------------------|
|------------------|---------------------2---|
|--2-------------2-|-(2)--2--------------0---|
|--0-------3-2-1-0-|-(0)--0------------------|


  +Q   Q  E E E E   +Q   Q  E E E E   +Q   Q  E   E   E   E   H    Q.    E
|-----------------|-----------------|-----------------------|---------------|
|-----------------|-----------------|-----------------------|---------------|
|-----------------|-----------------|-----------------------|---------------|
|-----------------|-----------------|-----------------------|---------------|
|-(2)--2--------7-|-(7)--7--------2-|-(2)--2--------------7-|-7----7-----2--|
|-(0)--0--0-2-4-5-|-(5)--5--5-3-2-0-|-(0)--0--0---2---4---5-|-5----5-----0--|
|
|  Q   Q  E E E E   +Q   Q  Q   E E   +Q   Q  S S S S S S E   H    Q   E E
|-----------------|-----------------|-----------------------|---------------|
|-----------------|-----------------|-----------------------|------------5--|
|-----------------|-----------------|-----------------------|------------4--|
|-----------------|---------------2-|-(2)--2--0---0---0---2-|---------------|
|--2------------2-|-(2)--2--------0-|-(0)--0--0---0---0---0-|---------------|
|--0------3-2-1-0-|-(0)--0----------|-----------------------|---------------|


  +Q   E E E E E E   +Q   E E E S S E E   +Q   E E E E E E   +Q   E E E E E E
|------------------|--------------------|------------------|-------------------|
|------------------|--------------------|------------------|-------------------|
|------------------|--------------------|------------------|-------------------|
|------------------|--------------------|------------------|-------------------|
|-(2)--2-2-2-----7-|-(7)--7-7-7-------2-|-(2)--2-2-2-----7-|-(7)--7-7-7-4-2-0--|
|-(0)--0-0-0-2-4-5-|-(5)--5-5-5-2---2-0-|-(0)--0-0-0-2-4-5-|-(5)--5-5-5--------|
|
| +Q   E E E E E E   +Q   E E E S S E E   +Q   E E E E E E   +Q   E E E E E E
|------------------|------------2---2---|------------------|-------------------|
|-(5)--------3---2-|-(2)--------2---2-5-|-(5)--------3---2-|-(2)------2--------|
|-(4)--------4---2-|-(2)--------6-----4-|-(4)--------4---2-|-(2)--------4-2-4--|
|------------------|--------------------|------------------|-------------------|
|------------------|------0-0-0---------|------------------|------0-0----------|
|------0-0-0-------|--------------------|------0-0-0-------|-------------------|


  Gtr I
   W                  W                   W                  H       Q   E E
|------------------|-------------------|-------------------|---------------5-|
|------------------|-------------------|-------------------|-----------------|
|------------------|-------------------|-------------------|-----------------|
|------------------|-------------------|-------------------|-----------------|
|------------------|-------------------|-------------------|-----------------|
|------------------|-------------------|-------------------|-----------------|
|
| Gtr II
| +Q   E E E E E E   +E  E E E E E E E   +E  E E E E E E E   E E E E E E E E
|------------------|-------------------|-------------------|---3---3---3-----|
|------------------|-------------------|-------------------|---3---3---3-----|
|------------------|-------------------|-------------------|---------------2-|
|----------------4-|-(4)-4-4-4-4-------|-------------------|---------------2-|
|-(0)--2-2-2-2-2-2-|-(2)-2-2-2-2-----2-|-(2)-2-2-2-2-2-2-2-|-2-------------0-|
|------0-0-0-0-0---|-------------3-2-0-|-(0)-0-0-0-0-0-0-0-|-0---------------|
|
| Gtr III
| +Q   E E E E E E   +E  E E E E E E E   +E  E E E E E E E   E E E E E E E E
|----------------7-|-(7)-7-7-7-7-------|-------------------|---3---3---3---5-|
|----------------7-|-(7)-7-7-7-7-------|-------------------|---3---3---3---5-|
|-(4)--------------|-------------------|-------------------|-----------------|
|------------------|-------------5-4-2-|-(2)---------------|-----------------|
|------------------|-------------------|-----2-2-2-2-2-2-2-|-2---------------|
|------0-0-0-0-0---|-------------------|-----0-0-0-0-0-0-0-|-0---------------|


   E  E E   E   E E E E   +E  E E   E   E E E E
|--5--5-5---5---5-----5-|-(5)-5-5---5---5-3-1-3-|
|-----------------------|-----------------------|
|-----------------5-5---|-----------------------|
|-----------------------|-----------------------|
|-----------------------|-----------------------|
|-----------------------|-----------------------|
|
| +W                      +H            E E E E
|-----------------------|-----------------------|
|-----------------------|-----------------------|
|-(2)-------------------|-(2)-----------2-------|
|-(2)-------------------|-(2)-----------2-------|
|-(0)-------------------|-(0)-----------0-------|
|-----------------------|-----------------3-2-0-|
|
| +E  E S S S S E E E E   +E  E S S S S E E E E
|-(5)-5-5---5---5-----5-|-(5)-5-5---5---5-------|
|-(5)-5-5---5---5-----5-|-(5)-5-5---5---5-------|
|-----------------5-6---|-----------------5-4---|
|-----------------------|-----------------------|
|-----------------------|-----------------------|
|-----------------------|---------------------0-|


  +Q     Q   H         H         Q  E  E
|-(3)---------------|------------------5-|
|-------------------|--------------------|
|-------------------|--------------------|
|-------------------|--------------------|
|-------------------|--------------------|
|-------------------|--------------------|
|
| +E   E Q   Q  E E   +E   E Q   Q  E  E
|-------------------|--------------------|
|-------------------|--------------------|
|-------------------|------------------2-|
|------2-0----------|---------------2--2-|
|------------4--5-7-|-(7)--7-5---4-----0-|
|-(0)---------------|--------------------|
|
| +E   E Q   Q  E E   +E   E Q   Q  E  E
|-----12----12------|-----12----12-------|
|-----12----12------|-----12----12-------|
|-------------------|-----------------14-|
|-------------------|-----------------14-|
|-------------------|--------------------|
|-(0)-------------0-|-(0)----------------|


   +E   E  E    E    E  E +E   E    +E   E  E    E    E  E  E E
|--(5)--5--5----5----5---------5-|--(5)--5--5----5----5-----7---|
|--------------------------------|-----------------------6----6-|
|-----------------------5-(5)----|------------------------------|
|--------------------------------|------------------------------|
|--------------------------------|------------------------------|
|--------------------------------|------------------------------|
|
|  +W                               +H                E  E  E E
|--------------------------------|------------------------------|
|--------------------------------|------------------------------|
|--(2)---------------------------|--(2)---------------2---------|
|--(2)---------------------------|--(2)---------------2---------|
|--(0)---------------------------|--(0)---------------0---------|
|--------------------------------|-----------------------3--2-0-|
|
|  +E   E  S S  S S  E  E  E   E    +E   E  S S  S S  E  E  E E
|--------------------------------|------------------------------|
|--------------------------------|------------------------------|
|-(14)-14-14---14---14--------14-|-(14)-14-14---14---14---------|
|-(14)-14-14---14---14--------14-|-(14)-14-14---14---14---------|
|----------------------15-16-----|----------------------15-14---|
|--------------------------------|----------------------------0-|


  +E   E +Q    H         H         E E E  E
|---------------------|---------------------|
|-(6)--8-(8)----------|--------------6-8-10-|
|---------------------|---------------------|
|---------------------|---------------------|
|---------------------|---------------------|
|---------------------|---------------------|
|
| +E   E  Q    Q  E E   +E   E Q   Q   E  E
|---------------------|---------------------|
|---------------------|---------------------|
|---------------------|---------------------|
|------2--0-----------|---------------------|
|--------------4--5-7-|-(7)--7-5---4---5----|
|-(0)-----------------|-------------------3-|
|
| +E   E  Q    Q  E E   +E   E Q   Q   E  E
|-----12------12------|-----12----12--------|
|-----12------12------|-----12----12--------|
|---------------------|---------------------|
|---------------------|---------------------|
|---------------------|---------------------|
|-(0)---------------0-|-(0)--------------14-|


   +E   E  E  E  E  E  E  E     E   E  E  E  Q     E  E
|-------------------------5-|---5---5--5--5--5--------7-|
|-(10)-10-10-10--8--6--6----|---------------------------|
|---------------------------|---------------------------|
|---------------------------|---------------------------|
|---------------------------|---------------------------|
|---------------------------|---------------------------|
|
|  +E   E  E  E  E  E  E  E    +E   E  E  E  E  E  E  E
|---------------------------|---------------------------|
|---------------------------|-------------------------4-|
|---------------------------|---------------------------|
|---------------------------|----------2-----1--2-------|
|----------4-----3--4-----0-|--(0)--0-----0--------0----|
|--(3)--2-----2--------2----|---------------------------|
|
|  +E   E  E  E  E  E  E  E    +E   E  E  E  E  E  E  E
|---------------------------|---------------------------|
|---------------------------|---------------------------|
|---------------------------|------------------------11-|
|---------------------------|---------14----13-14-------|
|---------16----15-16----12-|-(12)-12----12-------12----|
|-(14)-14----14-------14----|---------------------------|


   +E   E  E  E  E   E  E  E    W
|--(7)--7--5--3--1---3--5--7-|--7----------------------|
|----------------------------|-------------------------|
|----------------------------|-------------------------|
|----------------------------|-------------------------|
|----------------------------|-------------------------|
|----------------------------|-------------------------|
|
|  +E   E  E  E +E   E  E  E    E  E  E  E  E  E  E  E
|----------------------------|-------------------------|
|--(4)--4--4-----------------|-------------------------|
|-------------4-(4)--4--4----|-------------------------|
|--------------------------4-|--4--4--4-----------4--4-|
|----------------------------|-----------2--2--2-------|
|----------------------------|-------------------------|
|
|  +E   E  E  E  E   E  E  E    E  E  E  E  E  E  E  E
|----------------------------|-------------------------|
|----------------------------|-------------------------|
|-(11)-11-11-----------------|-------------------------|
|------------13-13--13-13----|-------------------------|
|-------------------------14-|-14-14-14----------14-14-|
|----------------------------|----------14-14-14-------|


  E  E  Q    E  E  +E   E    E  E  E  E  E  E  E  E
|---10-10---10-10-(10)-10-|-10-10-10-10-10-10-10-12-|
|-------------------------|-------------------------|
|-------------------------|-------------------------|
|-------------------------|-------------------------|
|-------------------------|-------------------------|
|-------------------------|-------------------------|
|
| E  E  E E  E  E   E   E    E  E  E  E  E  E  E  E
|-------------------------|-------------------------|
|----3--3----3--3-------3-|-----3--------3--3--4--5-|
|-------------------------|-------------------------|
|-------------------------|-------------------------|
|---------5---------5-----|--5-----5--5-------------|
|-------------------------|-------------------------|
|
| E  E  Q    E  E   E   E    E  E  E  E  E  E  E  E
|-------------------------|-------------------------|
|-------------------------|-------------------------|
|-------------------------|-------------------------|
|-------------------------|-------------------------|
|-------------------------|--------------9--9-10-11-|
|---14-14---14-14------14-|----14----10-------------|


   +E  E  Q   E  E  E  E     E   E  E  E  Q    E  E
|-(12)-------------------|--------------------------|
|------------------------|--------------------------|
|------------------------|--------------------------|
|---------------14-14----|--14-----14----14------14-|
|---------------------15-|------15----15------------|
|------------------------|--------------------------|
|
|  +E  E  E E E  E  E  E    +Q      Q     E  E E  E
|------------------------|--------------------------|
|--(5)-3--2--------------|--------------------------|
|-----------4------------|--------------------------|
|-------------2--4--6--7-|--(7)-----7-------------4-|
|----------------------7-|--(7)-----5-----4--2-0--2-|
|----------------------5-|--(5)-----5---------------|
|
|   Q     E E E  E  E  E    +Q      E  E  E  E E  E
|------------------------|--------------------------|
|------------------------|-----------------------12-|
|---------------------14-|-(14)----14-------14---11-|
|--------14-----14----14-|-(14)----14-------14------|
|--------14-----14----12-|-(12)----12--0--0-12------|
|--------12-0-0-12-------|--------------------------|


    E   E  E  E  E  E  E  E    Q    E E +Q    Q
|---------------------------|---------------------|
|---------------------------|---------------------|
|---------------------------|-12---10-9-(9)-------|
|--15--14-15-14-15-14-15-14-|---------------------|
|---------------------------|---------------------|
|---------------------------|---------------------|
|
|  +E   E  E  E  E  E  E  E    E E  E E +E  E E E
|---------------------------|---------------3-----|
|---------------------------|---------------3-7-5-|
|---------------------------|---------------0-6-4-|
|--





Comments


Popular X Japan tabs & chords
Art Of Life Bass Tabs
Art Of Life 2 Bass Tabs
Blue Blood Intro Bass Tabs
Dear Loser Bass Tabs
Kurenai Chords
Tears Chords
Dahlia Tabs
Endless Rain (Solo) Tabs
Endless Rain 2 Tabs
Silent Jealousy Tabs


Song lyrics



↑ Back to top | Tablatures and chords are parodies/interpretations of the original songs. You may use it for private study, scholarship, research or language learning purposes only
© 2014 AZChords.com Contact us | Privacy policy | DMCA | Add/correct tabs | Request tabs | Top 50 tabs