>
 >
Drain

Drain Guitar Tabs

X Japan - Drain chords, tabs, tablatures, lyrics

Guitar lessons | Add/correct | Request | Top 50 tabs Artists:  A B C D E F G H I J K L M N O P Q R S T U V W X Y Z 0-9

Drain Guitar Tabs – X Japan

CD, Sheet music, Poster

Do you like Drain? Share with your friends now
Bass TabsTabs

DRAIN
As recorded by X Japan


	



Gtr I (E A D G B E) - 'Vocals'
Gtr II (E A D G B E) - 'Guitar 1'
Gtr III (E A D G B E) - 'Guitar 2'

  Q=130
 4/4
  Gtr II
  H    Q  E E   Q  Q  H      H    S S S S S S E     Q     Q  Q  E E
|-------------|------------|------5-5-5-5-5-5-5---|-4-------------2-|
|-------------|------------|------6-6-6-6-6-6-6---|-5-------------3-|
|-----------2-|-4----------|------5-5-5-5-5-5-5---|-4-------------2-|
|-----------0-|-2----------|------3-3-3-3-3-3-3---|-2-------------0-|
|-------------|------------|----------------------|-----------------|
|-------------|------------|----------------------|-----------------|
|
| Gtr III
| W             W            H    S S S S S S S S   S S E Q  H
|-------------|------------|----------------------|-----------------|
|-------------|------------|----------------------|-----------------|
|-------------|------------|------4-4-4-4-4-4-4-4-|-4---------------|
|-------------|------------|----------------------|-----------------|
|-------------|------------|----------------------|-----------------|
|-------------|------------|----------------------|-----------------|


  Q  Q  S S S S S S E     Q      Q    H            H    S S S S S S E
|-4-----5-5-5-5-5-5-5---|-4----------------------|------5-5-5-5-5-5-5---|
|-5-----6-6-6-6-6-6-6---|-5----------------------|------6-6-6-6-6-6-6---|
|-4-----5-5-5-5-5-5-5---|-4----------------------|------5-5-5-5-5-5-5---|
|-2-----3-3-3-3-3-3-3---|-2----------------------|------3-3-3-3-3-3-3---|
|-----------------------|------------------------|----------------------|
|-----------------------|------------------------|----------------------|
|
| H     S S S S S S S S   E S S +E  E E. S +E  E   H    S S S S S S S S
|-----------------------|------------------------|----------------------|
|-----------------------|------------------------|----------------------|
|-------4-4-4-4-4-4-4-4-|-4----------------------|------4-4-4-4-4-4-4-4-|
|-----------------------|-0----------------------|----------------------|
|-----------------------|-----5-(5)-5-5--5-(5)-5-|----------------------|
|-----------------------|------------------------|----------------------|


  Gtr I
  W              W                     Q       Q       H
|--------------|---------------------|-7-------------------------------|
|--------------|---------------------|---------------------------------|
|--------------|---------------------|---------------------------------|
|--------------|---------------------|---------------------------------|
|--------------|---------------------|---------------------------------|
|--------------|---------------------|---------------------------------|
|
| Gtr II
| Q  Q  Q  E E   Q  Q  S S S S S S E   S S S S S S S S S S S S S S S S
|-4----------2-|-4-----5-5---5---5-5-|---------------------------------|
|-5----------3-|-5-----6-6---6---6-6-|---------------------------------|
|-4----------2-|-4-----5-5---5---5-5-|-4-4-4-4-4-4-4-4-----------------|
|-2----------0-|-2-----3-3---3---3-3-|-2-2-2-2-2-2-2-2-----------------|
|--------------|-----------0---0-----|-----------------5-5-5-5-5-5-5-5-|
|--------------|---------------------|-----------------3-3-3-3-3-3-3-3-|
|
| Gtr III
| W              W                     S S S S S S S S S S S S S S S S
|--------------|---------------------|---------------------------------|
|--------------|---------------------|-5-5-5-5-5-5-5-5-5-5-5-5-5-5-5-5-|
|--------------|---------------------|---------------------------------|
|--------------|---------------------|-2-2-2-2-2-2-2-2-2-2-2-2-2-2-2-2-|
|--------------|---------------------|---------------------------------|
|--------------|---------------------|---------------------------------|


  Gtr II
  S S S S S S S S S S S S S S S S   S S S S S S S S S S S S S S S S
|---------------------------------|---------------------------------|
|---------------------------------|---------------------------------|
|-----------------5-5-5-5-5-5-5-5-|-4-4-4-4-4-4-4-4-----------------|
|-5-5-5-5-5-5-5-5-3-3-3-3-3-3-3-3-|-2-2-2-2-2-2-2-2-----------------|
|-3-3-3-3-3-3-3-3-----------------|-----------------5-5-5-5-5-5-5-5-|
|---------------------------------|-----------------3-3-3-3-3-3-3-3-|
|
| Gtr III
| S S S S S S S S S S S S S S S S   S S S S S S S S S S S S S S S S
|-----------------5-5-5-5-5-5-5-5-|-7-7-7-7-7-7-7-7-7-7-7-7-7-7-7-7-|
|-5-5-5-5-5-5-5-5-----------------|---------------------------------|
|-----------------2-2-2-2-2-2-2-2-|-4-4-4-4-4-4-4-4-4-4-4-4-4-4-4-4-|
|-2-2-2-2-2-2-2-2-----------------|---------------------------------|
|---------------------------------|---------------------------------|
|---------------------------------|---------------------------------|


  S S S S S S S S S S S S S S S S   S S S S S S S S S S S S S S S S
|---------------------------------|---------------------------------|
|---------------------------------|---------------------------------|
|-----------------5-5-5-5-5-5-5-5-|-4-4-4-4-4-4-4-4-----------------|
|-5-5-5-5-5-5-5-5-3-3-3-3-3-3-3-3-|-2-2-2-2-2-2-2-2-----------------|
|-3-3-3-3-3-3-3-3-----------------|-----------------5-5-5-5-5-5-5-5-|
|---------------------------------|-----------------3-3-3-3-3-3-3-3-|
|
| S S S S S S S S S S S S S S S S   S S S S S S S S S S S S S S S S
|-3-3-3-3-3-3-3-3-3-3-3-3-5-5-5-5-|---------------------------------|
|---------------------------------|-5-5-5-5-5-5-5-5-5-5-5-5-5-5-5-5-|
|-0-0-0-0-0-0-0-0-0-0-0-0-2-2-2-2-|---------------------------------|
|---------------------------------|-2-2-2-2-2-2-2-2-2-2-2-2-2-2-2-2-|
|---------------------------------|---------------------------------|
|---------------------------------|---------------------------------|


  S S S S S S S S S S S S S S S S   S S S S S S S S S S S S S S S S
|---------------------------------|---------------------------------|
|---------------------------------|---------------------------------|
|-----------------5-5-5-5-5-5-5-5-|-4-4-4-4-4-4-4-4-----------------|
|-5-5-5-5-5-5-5-5-3-3-3-3-3-3-3-3-|-2-2-2-2-2-2-2-2-----------------|
|-3-3-3-3-3-3-3-3-----------------|-----------------5-5-5-5-5-5-5-5-|
|---------------------------------|-----------------3-3-3-3-3-3-3-3-|
|
| S S S S S S S S S S S S S S S S   S S S S S S S S S S S S S S S S
|-----------------5-5-5-5-5-5-5-5-|-7-7-7-7-7-7-7-7-7-7-3-3-3-3-3-3-|
|-5-5-5-5-5-5-5-5-----------------|---------------------------------|
|-----------------2-2-2-2-2-2-2-2-|-4-4-4-4-4-4-4-4-4-4-0-0-0-0-0-0-|
|-2-2-2-2-2-2-2-2-----------------|---------------------------------|
|---------------------------------|---------------------------------|
|---------------------------------|---------------------------------|


  Gtr I
  H               E E E E   Q  E E +E  E E E
|-------------------------|------------------|
|-------------------------|-8----5-(5)-----3-|
|-----------------------7-|----7-------4-4---|
|-------------------9-9---|------------------|
|-------------------------|------------------|
|-------------------------|------------------|
|
| Gtr II
| S S S S S S S S H         W
|-------------------------|------------------|
|-------------------------|------------------|
|-------------------------|------------------|
|-5-5-5-5-5-5-5-5---------|------------------|
|-3-3-3-3-3-3-3-3---------|------------------|
|-------------------------|------------------|
|
| Gtr III
| S S S S S S S S H         W
|-3-3-5-5-5-5-5-5---------|------------------|
|-------------------------|------------------|
|-0-0-2-2-2-2-2-2---------|------------------|
|-------------------------|------------------|
|-------------------------|------------------|
|-------------------------|------------------|


  Q  E E +E  E +E  E   E. S +E  E E. S +E  E
|-3----------------3-|-7--5-(5)-3-7--5-(5)-3-|
|----3-5-(5)-5-(5)---|-----------------------|
|--------------------|-----------------------|
|--------------------|-----------------------|
|--------------------|-----------------------|
|--------------------|-----------------------|
|
| W                    W
|--------------------|-----------------------|
|--------------------|-----------------------|
|--------------------|-----------------------|
|--------------------|-----------------------|
|--------------------|-----------------------|
|--------------------|-----------------------|
|
| W                    W
|--------------------|-----------------------|
|--------------------|-----------------------|
|--------------------|-----------------------|
|--------------------|-----------------------|
|--------------------|-----------------------|
|--------------------|-----------------------|


   Q.        E +E     E    E    E      Q  E E +S  S E E E
|--3---------5-(5)------------------|---------------------|
|-------------------------------3---|--8--8-5-(5)-------5-|
|---------------------4----4--------|-12--7-9-(9)---4-4---|
|-----------------------------------|---------------------|
|-----------------------------------|---------------------|
|-----------------------------------|---------------------|
|
|  E   E  E  E  E     E    E    E      W
|-10--15-19-24----------------------|---------------------|
|--------------24--------------24---|---------------------|
|--7--12-16-21-------24-------------|---------------------|
|--------------21---------24---21---|---------------------|
|--------------------22-------------|---------------------|
|-------------------------22--------|---------------------|
|
|  H            S  S  S S  S S  S S    Q  Q    H
|-----------------------------------|---------------------|
|---------------3--3--3-3--3-3--3-3-|--5------------------|
|---------------2--2--2-2--2-2--2-2-|--4------------------|
|---------------0--0--0-0--0-0--0-0-|--2------------------|
|-----------------------------------|---------------------|
|-----------------------------------|---------------------|


  Q  E E +E  E +E  E   E. S +E  E E. S +E  E
|-3----------------3-|-7--5-(5)-3-7--5-(5)-3--|
|----3-5-(5)-5-(5)---|------------------------|
|--------------------|------------------------|
|--------------------|------------------------|
|--------------------|------------------------|
|--------------------|------------------------|
|
| W                    W
|--------------------|------------------------|
|--------------------|------------------------|
|--------------------|------------------------|
|--------------------|------------------------|
|--------------------|------------------------|
|--------------------|------------------------|
|
| W                    W
|--------------------|------------------------|
|--------------------|------------------------|
|--------------------|------------------------|
|--------------------|------------------------|
|--------------------|------------------------|
|--------------------|------------------------|


  Q.   E +Q        Q         W
|-7----7-(7)-------7-------|-7-------------------------------|
|--------------------------|---------------------------------|
|--------------------------|---------------------------------|
|--------------------------|---------------------------------|
|--------------------------|---------------------------------|
|--------------------------|---------------------------------|
|
| H       S  S S S S S S S   S S S S S S S S S S S S S S S S
|--------------------------|---------------------------------|
|--------------------------|---------------------------------|
|------------2-2-2-2-2-2-2-|-4-4-4-4-4-4-4-4-----------------|
|------------0-0-0-0-0-0-0-|-2-2-2-2-2-2-2-2-----------------|
|--------------------------|-----------------5-5-5-5-5-5-5-5-|
|--------------------------|-----------------3-3-3-3-3-3-3-3-|
|
| H       S  S S S S S S S   S S S S S S S S S S S S S S S S
|--------------------------|---------------------------------|
|--------------------------|-5-5-5-5-5-5-5-5-5-5-5-5-5-5-5-5-|
|------------2-2-2-2-2-2-2-|---------------------------------|
|------------0-0-0-0-0-0-0-|-2-2-2-2-2-2-2-2-2-2-2-2-2-2-2-2-|
|--------------------------|---------------------------------|
|--------------------------|---------------------------------|


  H               E.     S +E    E     Q.           E   H
|-----------------7------5-(5)---3---|-7------------7---7---------------|
|------------------------------------|----------------------------------|
|------------------------------------|----------------------------------|
|------------------------------------|----------------------------------|
|------------------------------------|----------------------------------|
|------------------------------------|----------------------------------|
|
| S S S S S S S S S  S S S  S  S S S   S  S S S S S S S S S S S S S S S
|------------------------------------|----------------------------------|
|------------------------------------|----------------------------------|
|-----------------5--5-5-5--5--5-5-5-|-4--4-4-4-4-4-4-4-----------------|
|-5-5-5-5-5-5-5-5-3--3-3-3--3--3-3-3-|-2--2-2-2-2-2-2-2-----------------|
|-3-3-3-3-3-3-3-3--------------------|------------------5-5-5-5-5-5-5-5-|
|------------------------------------|------------------3-3-3-3-3-3-3-3-|
|
| S S S S S S S S S  S S S  S  S S S   S  S S S S S S S S S S S S S S S
|-----------------5--5-5-5--5--5-5-5-|-7--7-7-7-7-7-7-7-7-7-7-7-7-7-7-7-|
|-5-5-5-5-5-5-5-5--------------------|----------------------------------|
|-----------------2--2-2-2--2--2-2-2-|-4--4-4-4-4-4-4-4-4-4-4-4-4-4-4-4-|
|-2-2-2-2-2-2-2-2--------------------|----------------------------------|
|------------------------------------|----------------------------------|
|------------------------------------|----------------------------------|


  +H                E.     S +E    E     Q.           E   +H
|-(7)---------------7------5-(5)---3---|-7------------7---(7)---------------|
|--------------------------------------|------------------------------------|
|--------------------------------------|------------------------------------|
|--------------------------------------|------------------------------------|
|--------------------------------------|------------------------------------|
|--------------------------------------|------------------------------------|
|
|  S  S S S S S S S S  S S S  S  S S S   S  S S S S S S S  S  S S S S S S S
|--------------------------------------|------------------------------------|
|--------------------------------------|------------------------------------|
|-------------------5--5-5-5--5--5-5-5-|-4--4-4-4-4-4-4-4-------------------|
|--5--5-5-5-5-5-5-5-3--3-3-3--3--3-3-3-|-2--2-2-2-2-2-2-2-------------------|
|--3--3-3-3-3-3-3-3--------------------|-------------------5--5-5-5-5-5-5-5-|
|--------------------------------------|-------------------3--3-3-3-3-3-3-3-|
|
|  S  S S S S S S S S  S S S  S  S S S   S  S S S S S S S  S  S S S S S S S
|--3--3-3-3-3-3-3-3-5--5-5-5--5--5-5-5-|------------------------------------|
|--------------------------------------|-5--5-5-5-5-5-5-5--5--5-5-5-5-5-5-5-|
|--0--0-0-0-0-0-0-0-2--2-2-2--2--2-2-2-|------------------------------------|
|--------------------------------------|-2--2-2-2-2-2-2-2--2--2-2-2-2-2-2-2-|
|--------------------------------------|------------------------------------|
|--------------------------------------|------------------------------------|


  +Q.           E   E   E   E   E     Q.           E   +H
|-(7)---------------7---7---5---3---|-7------------7---(7)---------------|
|---------------5-------------------|------------------------------------|
|-----------------------------------|------------------------------------|
|-----------------------------------|------------------------------------|
|-----------------------------------|------------------------------------|
|-----------------------------------|------------------------------------|
|
|  S  S S S S S S S S S S S S S S S   S  S S S S S S S  S  S S S S S S S
|-----------------------------------|------------------------------------|
|-----------------------------------|------------------------------------|
|-------------------5-5-5-5-5-5-5-5-|-4--4-4-4-4-4-4-4-------------------|
|--5--5-5-5-5-5-5-5-3-3-3-3-3-3-3-3-|-2--2-2-2-2-2-2-2-------------------|
|--3--3-3-3-3-3-3-3-----------------|-------------------5--5-5-5-5-5-5-5-|
|-----------------------------------|-------------------3--3-3-3-3-3-3-3-|
|
|  S  S S S S S S S S S S S S S S S   S  S S S S S S S  S  S S S S S S S
|-------------------5-5-5-5-5-5-5-5-|-7--7-7-7-7-7-7-7--7--7-7-7-7-7-7-7-|
|--5--5-5-5-5-5-5-5-----------------|------------------------------------|
|-------------------2-2-2-2-2-2-2-2-|-4--4-4-4-4-4-4-4--4--4-4-4-4-4-4-4-|
|--2--2-2-2-2-2-2-2-----------------|------------------------------------|
|-----------------------------------|------------------------------------|
|-----------------------------------|------------------------------------|


  +H                E E E E   Q  E E +E  E E E
|-(7)-----------------------|------------------|
|---------------------------|-8----5-(5)-----3-|
|-------------------------7-|----7-------4-4---|
|---------------------9-9---|------------------|
|---------------------------|------------------|
|---------------------------|------------------|
|
|  S  S S S S S S S H         W
|---------------------------|------------------|
|---------------------------|------------------|
|---------------------------|------------------|
|--5--5-5-5-5-5-5-5---------|------------------|
|--3--3-3-3-3-3-3-3---------|------------------|
|---------------------------|------------------|
|
|  S  S S S S S S S H         W
|--7--7-7-7-7-7-7-7---------|------------------|
|---------------------------|------------------|
|--4--4-4-4-4-4-4-4---------|------------------|
|---------------------------|------------------|
|---------------------------|------------------|
|---------------------------|------------------|


  Q  E E +E  E +E  E   E. S +E  E E. S +E  E
|-3----------------3-|-7--5-(5)-3-7--5-(5)-3-|
|----3-5-(5)-5-(5)---|-----------------------|
|--------------------|-----------------------|
|--------------------|-----------------------|
|--------------------|-----------------------|
|--------------------|-----------------------|
|
| W                    W
|--------------------|-----------------------|
|--------------------|-----------------------|
|--------------------|-----------------------|
|--------------------|-----------------------|
|--------------------|-----------------------|
|--------------------|-----------------------|
|
| W                    W
|--------------------|-----------------------|
|--------------------|-----------------------|
|--------------------|-----------------------|
|--------------------|-----------------------|
|--------------------|-----------------------|
|--------------------|-----------------------|


   Q.        E +E     E    E    E      Q  E E +S  S E E E
|--3---------5-(5)------------------|---------------------|
|-------------------------------3---|--8--8-5-(5)-------5-|
|---------------------4----4--------|-12--7-9-(9)---4-4---|
|-----------------------------------|---------------------|
|-----------------------------------|---------------------|
|-----------------------------------|---------------------|
|
|  E   E  E  E  E     E    E    E      W
|-10--15-19-24----------------------|---------------------|
|--------------24--------------24---|---------------------|
|--7--12-16-21-------24-------------|---------------------|
|--------------21---------24---21---|---------------------|
|--------------------22-------------|---------------------|
|-------------------------22--------|---------------------|
|
|  H            S  S  S S  S S  S S    Q  Q    H
|-----------------------------------|---------------------|
|-----------------------------------|---------------------|
|---------------7--7--7-7--7-7--7-7-|--9------------------|
|---------------7--7--7-7--7-7--7-7-|--9------------------|
|---------------5--5--5-5--5-5--5-5-|--7------------------|
|-----------------------------------|---------------------|


  Q  E E +E  E +E  E   E. S +E  E E. S +E  E
|-3----------------3-|-7--5-(5)-3-7--5-(5)-3--|
|----3-5-(5)-5-(5)---|------------------------|
|--------------------|------------------------|
|--------------------|------------------------|
|--------------------|------------------------|
|--------------------|------------------------|
|
| W                    W
|--------------------|------------------------|
|--------------------|------------------------|
|--------------------|------------------------|
|--------------------|------------------------|
|--------------------|------------------------|
|--------------------|------------------------|
|
| W                    W
|--------------------|------------------------|
|--------------------|------------------------|
|--------------------|------------------------|
|--------------------|------------------------|
|--------------------|------------------------|
|--------------------|------------------------|


  Q.   E +Q            Q            Q.           E   +Q        Q
|-7----7-(7)-----------7----------|-7------------7---(7)-------7-------|
|---------------------------------|-0------------0---(0)-------0-------|
|---------------------------------|------------------------------------|
|---------------------------------|------------------------------------|
|---------------------------------|------------------------------------|
|---------------------------------|------------------------------------|
|
| H       S   S  S  S  S  S  S  S   S  S S S S S S S  S  S S S S S S S
|---------------------------------|------------------------------------|
|---------------------------------|------------------------------------|
|-------------2--2--2--2--2--2--2-|-4--4-4-4-4-4-4-4--4--4-4-4-4-4-4-4-|
|-------------0--0--0--0--0--0--0-|-2--2-2-2-2-2-2-2--2--2-2-2-2-2-2-2-|
|---------------------------------|------------------------------------|
|---------------------------------|------------------------------------|
|
| H       S   S  S  S  S  S  S  S   S  S S S S S S S  S  S S S S S S S
|---------------------------------|------------------------------------|
|---------------------------------|------------------------------------|
|---------------------------------|-9--9-9-9-9-9-9-9--9--9-9-9-9-9-9-9-|
|-------------7--7--7--7--7--7--7-|------------------------------------|
|---------------------------------|-7--7-7-7-7-7-7-7--7--7-7-7-7-7-7-7-|
|------------10-10-10-10-10-10-10-|------------------------------------|


  Q       E   E    E.     S +E    E     W
|-----------------10------8-(8)---7---|-7-------------------------------|
|-8-----------8-------------------0---|-0-------------------------------|
|-0-----------0----7------5-(5)-------|---------------------------------|
|-------------------------------------|---------------------------------|
|-------------------------------------|---------------------------------|
|-------------------------------------|---------------------------------|
|
| S S S S S S S S  S  S S S  S  S S S   S S S S S S S S S S S S S S S S
|-------------------------------------|---------------------------------|
|-------------------------------------|---------------------------------|
|-------------------------------------|---------------------------------|
|-------------------------------------|-5-5-5-5-5-5-5-5-5-5-5-5-5-5-5-5-|
|-5-5-5-5-5-5-5-5--5--5-5-5--5--5-5-5-|-3-3-3-3-3-3-3-3-3-3-3-3-3-3-3-3-|
|-3-3-3-3-3-3-3-3--3--3-3-3--3--3-3-3-|---------------------------------|
|
| S S S S S S S S  S  S S S  S  S S S   S S S S S S S S S S S S S S S S
|-------------------------------------|---------------------------------|
|-------------------------------------|---------------------------------|
|-9-9-9-9-9-9-9-9--9--9-9-9--9--9-9-9-|-9-9-9-9-9-9-9-9-9-9-9-9-9-9-9-9-|
|-------------------------------------|---------------------------------|
|-7-7-7-7-7-7-7-7--7--7-7-7--7--7-7-7-|-7-7-7-7-7-7-7-7-7-7-7-7-7-7-7-7-|
|-------------------------------------|---------------------------------|


   H                       E     E     E     E
|--8-----------------------------8----10-----8----|
|-------------------------------------------------|
|--5-----------------------------5-----7-----5----|
|-------------------------------------------------|
|-------------------------------------------------|
|-------------------------------------------------|
|
|  S  S  S  S  S  S  S  S  S  S  S  S  S  S  S  S
|--5--5--5--5--5--5--5--5--5--5--5--5--5--5--5--5-|
|--6--6--6--6--6--6--6--6--6--6--6--6--6--6--6--6-|
|--5--5--5--5--5--5--5--5--5--5--5--5--5--5--5--5-|
|--3--3--3--3--3--3--3--3--3--3--3--3--3--3--3--3-|
|-------------------------------------------------|
|-------------------------------------------------|
|
|  S  S  S  S  S  S  S  S  S  S  S  S  S  S  S  S
|-------------------------------------------------|
|-------------------------------------------------|
|-10-10-10-10-10-10-10-10-10-10-10-10-10-10-10-10-|
|-------------------------------------------------|
|--8--8--8--8--8--8--8--8--8--8--8--8--8--8--8--8-|
|-------------------------------------------------|


   Q.                 E    +Q            Q
|--7------------------7----(7)-----------7----------|
|--0------------------0----(0)-----------0----------|
|---------------------------------------------------|
|---------------------------------------------------|
|---------------------------------------------------|
|---------------------------------------------------|
|
|  S   S  S  S  S  S  S  S  S   S  S  S  S  S  S  S
|---------------------------------------------------|
|---------------------------------------------------|
|--4---4--4--4--4--4--4--4--4---4--4--4--4--4--4--4-|
|--2---2--2--2--2--2--2--2--2---2--2--2--2--2--2--2-|
|---------------------------------------------------|
|---------------------------------------------------|
|
|  S   S  S  S  S  S  S  S  S   S  S  S  S  S  S  S
|---------------------------------------------------|
|---------------------------------------------------|
|--9---9--9--9--9--9--9--9--9---9--9--9--9--9--9--9-|
|---------------------------------------------------|
|---------------------------------------------------|
|-12--12-12-12-12-12-12-12-12--12-12-12-12-12-12-12-|


   Q           E     E     E.        S +E      E
|-------------------------10---------8-(8)-----7----|
|--8-----------------8-------------------------0----|
|--0-----------------0-----7---------5-(5)----------|
|---------------------------------------------------|
|---------------------------------------------------|
|---------------------------------------------------|
|
|  S  S  S  S  S  S  S  S  S   S  S  S  S   S  S  S
|---------------------------------------------------|
|---------------------------------------------------|
|---------------------------------------------------|
|---------------------------------------------------|
|--5--5--5--5--5--5--5--5--5---5--5--5--5---5--5--5-|
|--3--3--3--3--3--3--3--3--3---3--3--3--3---3--3--3-|
|
|  S  S  S  S  S  S  S  S  S   S  S  S  S   S  S  S
|---------------------------------------------------|
|---------------------------------------------------|
|--9--9--9--9--9--9--9--9--9---9--9--9--9---9--9--9-|
|---------------------------------------------------|
|---------------------------------------------------|
|-12-12-12-12-12-12-12-12-12--12-12-12-12--12-12-12-|


   W
|--7----------------------------------------------|
|--0----------------------------------------------|
|-------------------------------------------------|
|-------------------------------------------------|
|-------------------------------------------------|
|-------------------------------------------------|
|
|  S  S  S  S  S  S  S  S  S  S  S  S  S  S  S  S
|-------------------------------------------------|
|-------------------------------------------------|
|-------------------------------------------------|
|--5--5--5--5--5--5--5--5--5--5--5--5--5--5--5--5-|
|--3--3--3--3--3--3--3--3--3--3--3--3--3--3--3--3-|
|-------------------------------------------------|
|
|  S  S  S  S  S  S  S  S  S  S  S  S  S  S  S  S
|-------------------------------------------------|
|-------------------------------------------------|
|--9--9--9--9--9--9--9--9--9--9--9--9--9--9--9--9-|
|-------------------------------------------------|
|-------------------------------------------------|
|-12-12-12-12-12-12-12-12-12-12-12-12-12-12-12-12-|


   H                       Q           Q            H           H
|--8-----------------------8-----------8----------|-7-----------------------|
|-------------------------------------------------|-0-----------------------|
|--5-----------------------5-----------5----------|-------------------------|
|-------------------------------------------------|-------------------------|
|-------------------------------------------------|-------------------------|
|-------------------------------------------------|-------------------------|
|
|  S  S  S  S  S  S  S  S  S  S  S  S  S  S  S  S   E S S S S E E S S S S E
|--5--5--5--5--5--5--5--5--5--5--5--5--5--5--5--5-|-------------------------|
|--6--6--6--6--6--6--6--6--6--6--6--6--6--6--6--6-|-5---------3-5---------3-|
|--5--5--5--5--5--5--5--5--5--5--5--5--5--5--5--5-|-4---------2-4---------2-|
|--3--3--3--3--3--3--3--3--3--3--3--3--3--3--3--3-|-2---------0-2---------0-|
|-------------------------------------------------|---0-0-0-0-----0-0-0-0---|
|-------------------------------------------------|-------------------------|
|
|  S  S  S  S  S  S  S  S  S  S  S  S  S  S  S  S   E S S S S E E S S S S E
|-------------------------------------------------|-------------------------|
|-10-10-10-10-10-10-10-10-10-10-10-10-10-10-10-10-|-------------------------|
|-10-10-10-10-10-10-10-10-10-10-10-10-10-10-10-10-|-9---------7-9---------7-|
|-10-10-10-10-10-10-10-10-10-10-10-10-10-10-10-10-|-9---------7-9---------7-|
|--8--8--8--8--8--8--8--8--8--8--8--8--8--8--8--8-|-7---------5-7---------5-|
|-------------------------------------------------|---5-5-5-5-----5-5-5-5---|


  Q     Q     Q       Q       H           H
|-------8-----8-------8-----|-7-----------------------|
|---------------------------|-------------------------|
|---------------------------|-------------------------|
|---------------------------|-------------------------|
|---------------------------|-------------------------|
|---------------------------|-------------------------|
|
| E S S S S E S S S S S S E   E S S S S E E S S S S E
|---------------------------|-------------------------|
|-5---------3-1-1-1-1-1-1---|-5---------3-5---------3-|
|-4---------2-0-0-0-0-0-0---|-4---------2-4---------2-|
|-2---------0---------------|-2---------0-2---------0-|
|---0-0-0-0-----------------|---0-0-0-0-----0-0-0-0---|
|---------------------------|-------------------------|
|
| E S S S S E H               E S S S S E E S S S S E
|---------------------------|-------------------------|
|---------------------------|-------------------------|
|-9---------7---------------|-9---------7-9---------7-|
|-9---------7---------------|-9---------7-9---------7-|
|-7---------5---------------|-7---------5-7---------5-|
|---5-5-5-5-----------------|---5-5-5-5-----5-5-5-5---|


  Q     Q     Q       Q       H           H
|-------8-----8-------8-----|-7-----------------------|
|---------------------------|-------------------------|
|---------------------------|-------------------------|
|---------------------------|-------------------------|
|---------------------------|-------------------------|
|---------------------------|-------------------------|
|
| E S S S S E S S S S S S E   E S S S S E E S S S S E
|---------------------------|-------------------------|
|-5---------3-1-1---1---1-1-|-5---------3-5---------3-|
|-4---------2-0-0---0---0-0-|-4---------2-4---------2-|
|-2---------0---------------|-2---------0-2---------0-|
|---0-0-0-0-----------------|---0-0-0-0-----0-0-0-0---|
|---------------------------|-------------------------|
|
| E S S S S E H               E S S S S E E S S S S E
|---------------------------|-------------------------|
|---------------------------|-------------------------|
|-9---------7---------------|-9---------7-9---------7-|
|-9---------7---------------|-9---------7-9---------7-|
|-7---------5---------------|-7---------5-7---------5-|
|---5-5-5-5-----------------|---5-5-5-5-----5-5-5-5---|


  Q     Q     Q       Q         H.                 Q       H             Q  Q
|-------8-----8-------8-------|-7------------------------|---------------8--8--|
|-----------------------------|--------------------------|---------------------|
|-----------------------------|--------------------------|---------------------|
|-----------------------------|--------------------------|---------------------|
|-----------------------------|--------------------------|---------------------|
|-----------------------------|--------------------------|---------------------|
|
| E S S S S E S S S S S S S S   E  S S S S E E S S S S E   E S S S S S S H
|-----------------------------|--------------------------|---------------------|
|-5---------3-1-1-1-1-1-1-1-1-|-5----------3-5---------3-|-5-------------------|
|-4---------2-0-0-0-0-0-0-0-0-|-4----------2-4---------2-|-4-------------------|
|-2---------0-----------------|-2----------0-2---------0-|-2---------1---------|
|---0-0-0-0-------------------|----0-0-0-0-----0-0-0-0---|---0-0-0-0---0-------|
|-----------------------------|--------------------------|---------------------|
|
| E S S S S E S S S S S S S S   E  S S S S E E S S S S E   E S S S S S S H
|-----------------------------|--------------------------|---------------------|
|-------------6-6-6-6-6-6-6-6-|-5----------3-5---------3-|-5-------------------|
|-9---------7-5-5-5-5-5-5-5-5-|-4----------2-4---------2-|-4-------------------|
|-9---------7-3-3-3-3-3-3-3-3-|-2----------0-2---------0-|-2---------1---------|
|-7---------5-----------------|----0-0-0-0-----0-0-0-0---|---0-0-0-0---0-------|
|---5-5-5-5-------------------|--------------------------|---------------------|


  Q       Q       H                 W
|-7-------------------------------|---------------------------------|
|---------------------------------|---------------------------------|
|---------------------------------|---------------------------------|
|---------------------------------|---------------------------------|
|---------------------------------|---------------------------------|
|---------------------------------|---------------------------------|
|
| S S S S S S S S S S S S S S S S   S S S S S S S S S S S S S S S S
|---------------------------------|---------------------------------|
|---------------------------------|---------------------------------|
|-4-4-4-4-4-4-4-4-----------------|-----------------5-5-5-5-5-5-5-5-|
|-2-2-2-2-2-2-2-2-----------------|-5-5-5-5-5-5-5-5-3-3-3-3-3-3-3-3-|
|-----------------5-5-5-5-5-5-5-5-|-3-3-3-3-3-3-3-3-----------------|
|-----------------3-3-3-3-3-3-3-3-|---------------------------------|
|
| S S S S S S S S S S S S S S S S   S S S S S S S S S S S S S S S S
|---------------------------------|-----------------5-5-5-5-5-5-5-5-|
|-5-5-5-5-5-5-5-5-5-5-5-5-5-5-5-5-|-5-5-5-5-5-5-5-5-----------------|
|---------------------------------|-----------------2-2-2-2-2-2-2-2-|
|-2-2-2-2-2-2-2-2-2-2-2-2-2-2-2-2-|-2-2-2-2-2-2-2-2-----------------|
|---------------------------------|---------------------------------|
|---------------------------------|---------------------------------|


  Gtr II
  S S S S S S S S S S S S S S S S   S S S S S S S S S S S S S S S S
|---------------------------------|---------------------------------|
|---------------------------------|---------------------------------|
|-4-4-4-4-4-4-4-4-----------------|-----------------5-5-5-5-5-5-5-5-|
|-2-2-2-2-2-2-2-2-----------------|-5-5-5-5-5-5-5-5-3-3-3-3-3-3-3-3-|
|-----------------5-5-5-5-5-5-5-5-|-3-3-3-3-3-3-3-3-----------------|
|-----------------3-3-3-3-3-3-3-3-|---------------------------------|
|
| Gtr III
| S S S S S S S S S S S S S S S S   S S S S S S S S S S S S S S S S
|-7-7-7-7-7-7-7-7-7-7-7-7-7-7-7-7-|-3-3-3-3-3-3-3-3-3-3-3-3-5-5-5-5-|
|---------------------------------|---------------------------------|
|-4-4-4-4-4-4-4-4-4-4-4-4-4-4-4-4-|-0-0-0-0-0-0-0-0-0-0-0-0-2-2-2-2-|
|---------------------------------|---------------------------------|
|---------------------------------|---------------------------------|
|---------------------------------|---------------------------------|


  S S S S S S S S S S S S S S S S   S S S S S S S S S S S S S S S S
|---------------------------------|---------------------------------|
|---------------------------------|---------------------------------|
|-4-4-4-4-4-4-4-4-----------------|-----------------5-5-5-5-5-5-5-5-|
|-2-2-2-2-2-2-2-2-----------------|-5-5-5-5-5-5-5-5-3-3-3-3-3-3-3-3-|
|-----------------5-5-5-5-5-5-5-5-|-3-3-3-3-3-3-3-3-----------------|
|-----------------3-3-3-3-3-3-3-3-|---------------------------------|
|
| S S S S S S S S S S S S S S S S   S S S S S S S S S S S S S S S S
|---------------------------------|-----------------5-5-5-5-5-5-5-5-|
|-5-5-5-5-5-5-5-5-5-5-5-5-5-5-5-5-|-5-5-5-5-5-5-5-5-----------------|
|---------------------------------|-----------------2-2-2-2-2-2-2-2-|
|-2-2-2-2-2-2-2-2-2-2-2-2-2-2-2-2-|-2-2-2-2-2-2-2-2-----------------|
|---------------------------------|---------------------------------|
|---------------------------------|---------------------------------|


  Gtr I
  W
|---------------------------------|
|---------------------------------|
|---------------------------------|
|---------------------------------|
|---------------------------------|
|---------------------------------|
|
| Gtr II
| S S S S S S S S S S S S S S S S
|---------------------------------|
|---------------------------------|
|-4-4-4-4-4-4-4-4-----------------|
|-2-2-2-2-2-2-2-2-----------------|
|-----------------5-5-5-5-5-5-5-5-|
|-----------------3-3-3-3-3-3-3-3-|
|
| Gtr III
| S S S S S S S S S S S S S S S S
|-7-7-7-7-7-7-7-7-7-7-3-3-3-3-3-3-|
|---------------------------------|
|-4-4-4-4-4-4-4-4-4-4-0-0-0-0-0-0-|
|---------------------------------|
|---------------------------------|
|---------------------------------|


  H               E S S S S S S   E. S E E +E  E E E
|-------------------------------|-3------------------|
|-------------------------------|----3-3-5-(5)-----3-|
|-------------------------------|--------------4-4---|
|-------------------5---5---5---|--------------------|
|-------------------------------|--------------------|
|-------------------------------|--------------------|
|
| S S S S S S S S H               W
|-------------------------------|--------------------|
|-------------------------------|--------------------|
|-------------------------------|--------------------|
|-5-5-5-5-5-5-5-5---------------|--------------------|
|-3-3-3-3-3-3-3-3---------------|--------------------|
|-------------------------------|--------------------|
|
| S S S S S S S S H               W
|-3-3-3-3-3-3-3-3---------------|--------------------|
|-------------------------------|--------------------|
|-0-0-0-0-0-0-0-0---------------|--------------------|
|-------------------------------|--------------------|
|-------------------------------|--------------------|
|-------------------------------|--------------------|


  E E E E +E  E +E  E   E. S +E  E E. S +E  E
|-3-----------------3-|-7--5-(5)-3-7--5-(5)-3-|
|---3-3-5-(5)-5-(5)---|-----------------------|
|---------------------|-----------------------|
|---------------------|-----------------------|
|---------------------|-----------------------|
|---------------------|-----------------------|
|
| W                     W
|---------------------|-----------------------|
|---------------------|-----------------------|
|---------------------|-----------------------|
|---------------------|-----------------------|
|---------------------|-----------------------|
|---------------------|-----------------------|


  Q  E E +E      E     E E   Q  E E +E  E E E
|-3--3-5-(5)---------------|-3----------------|
|------------------------3-|----3-5-(5)-----3-|
|----------------4-----4---|------------4-4---|
|--------------------------|------------------|
|--------------------------|------------------|
|--------------------------|------------------|
|
| H       S   S  S  S  Q     W
|--------19--19-19-19-19---|------------------|
|--------------------------|------------------|
|--------16--16-16-16-16---|------------------|
|--------------------------|------------------|
|--------------------------|------------------|
|--------------------------|------------------|


  Q  E E +E  E +E  E   E. S +E  E E. S +E  E   Q.   E +Q            Q
|-3----------------3-|-7--5-(5)-3-7--5-(5)-3-|-7----7-(7)-----------7----------|
|----3-5-(5)-5-(5)---|-----------------------|---------------------------------|
|--------------------|-----------------------|---------------------------------|
|--------------------|-----------------------|---------------------------------|
|--------------------|-----------------------|---------------------------------|
|--------------------|-----------------------|---------------------------------|
|
| W                    W                       H       S   S  S  S  S  S  S  S
|--------------------|-----------------------|---------------------------------|
|--------------------|-----------------------|---------------------------------|
|--------------------|-----------------------|---------------------------------|
|--------------------|-----------------------|---------------------------------|
|--------------------|-----------------------|--------14--12-12-12-12-12-12-12-|
|--------------------|-----------------------|--------12--10-10-10-10-10-10-10-|


   Q.                 E    +Q            Q
|--7------------------7----(7)-----------7----------|
|--0------------------0----(0)-----------0----------|
|---------------------------------------------------|
|---------------------------------------------------|
|---------------------------------------------------|
|---------------------------------------------------|
|
|  S   S  S  S  S  S  S  S  S   S  S  S  S  S  S  S
|---------------------------------------------------|
|---------------------------------------------------|
|---------------------------------------------------|
|--9---9--9--9--9--9--9--9--9---9--9--9--9--9--9--9-|
|---------------------------------------------------|
|-12--12-12-12-12-12-12-12-12--12-12-12-12-12-12-12-|
|
| Gtr III
|  S   S  S  S  S  S  S  S  S   S  S  S  S  S  S  S
|---------------------------------------------------|
|--5---5--5--5--5--5--5--5--5---5--5--5--5--5--5--5-|
|---------------------------------------------------|
|--2---2--2--2--2--2--2--2--2---2--2--2--2--2--2--2-|
|---------------------------------------------------|
|---------------------------------------------------|


  Q       E   E    E.     S +E    E
|-----------------10------8-(8)---7---|
|-8-----------8-------------------0---|
|-0-----------0----7------5-(5)-------|
|-------------------------------------|
|-------------------------------------|
|-------------------------------------|
|
| S S S S S S S S  S  S S S  S  S S S
|-------------------------------------|
|-------------------------------------|
|-------------------------------------|
|-------------------------------------|
|-5-5-5-5-5-5-5-5--5--5-5-5--5--5-5-5-|
|-3-3-3-3-3-3-3-3--3--3-3-3--3--3-3-3-|
|
| S S S S S S S S  S  S S S  S  S S S
|-------------------------------------|
|-5-5-5-5-5-5-5-5--5--5-5-5--5--5-5-5-|
|-------------------------------------|
|-2-2-2-2-2-2-2-2--2--2-2-2--2--2-2-2-|
|-------------------------------------|
|-------------------------------------|


  W                                 H               E   E    E   E
|-7-------------------------------|-7-------------------8---10---8---|
|-0-------------------------------|----------------------------------|
|---------------------------------|-5-------------------5----7---5---|
|---------------------------------|----------------------------------|
|---------------------------------|----------------------------------|
|---------------------------------|----------------------------------|
|
| S S S S S S S S S S S S S S S S   S S S S S S S S S S S S  S S S S
|---------------------------------|-5-5-5-5-5-5-5-5-5-5-5-5--5-5-5-5-|
|---------------------------------|-6-6-6-6-6-6-6-6-6-6-6-6--6-6-6-6-|
|---------------------------------|-5-5-5-5-5-5-5-5-5-5-5-5--5-5-5-5-|
|-5-5-5-5-5-5-5-5-5-5-5-5-5-5-5-5-|-3-3-3-3-3-3-3-3-3-3-3-3--3-3-3-3-|
|-3-3-3-3-3-3-3-3-3-3-3-3-3-3-3-3-|----------------------------------|
|---------------------------------|----------------------------------|
|
| S S S S S S S S S S S S S S S S   S S S S S S S S S S S S  S S S S
|---------------------------------|----------------------------------|
|-5-5-5-5-5-5-5-5-5-5-5-5-5-5-5-5-|-6-6-6-6-6-6-6-6-6-6-6-6--6-6-6-6-|
|---------------------------------|----------------------------------|
|-2-2-2-2-2-2-2-2-2-2-2-2-2-2-2-2-|-3-3-3-3-3-3-3-3-3-3-3-3--3-3-3-3-|
|---------------------------------|----------------------------------|
|---------------------------------|----------------------------------|


  Q.           E   +Q        Q         Q       E   E    E.     S +E    E
|-7------------7---(7)-------7-------|-----------------10------8-(8)---7---|
|-0------------0---(0)-------0-------|-8-----------8-------------------0---|
|------------------------------------|-0-----------0----7------5-(5)-------|
|------------------------------------|-------------------------------------|
|------------------------------------|-------------------------------------|
|------------------------------------|-------------------------------------|
|
| S  S S S S S S S  S  S S S S S S S   S S S S S S S S  S  S S S  S  S S S
|------------------------------------|-------------------------------------|
|------------------------------------|-------------------------------------|
|-4--4-4-4-4-4-4-4--4--4-4-4-4-4-4-4-|-------------------------------------|
|-2--2-2-2-2-2-2-2--2--2-2-2-2-2-2-2-|-------------------------------------|
|------------------------------------|-5-5-5-5-5-5-5-5--5--5-5-5--5--5-5-5-|
|------------------------------------|-3-3-3-3-3-3-3-3--3--3-3-3--3--3-3-3-|
|
| S  S S S S S S S  S  S S S S S S S   S S S S S S S S  S  S S S  S  S S S
|------------------------------------|-------------------------------------|
|-5--5-5-5-5-5-5-5--5--5-5-5-5-5-5-5-|-5-5-5-5-5-5-5-5--5--5-5-5--5--5-5-5-|
|------------------------------------|-------------------------------------|
|-2--2-2-2-2-2-2-2--2--2-2-2-2-2-2-2-|-2-2-2-2-2-2-2-2--2--2-2-2--2--2-2-2-|
|------------------------------------|-------------------------------------|
|------------------------------------|-------------------------------------|


  W                                 H.                       Q
|-7-------------------------------|-8------------------------7-------|
|-0-------------------------------|--------------------------0-------|
|---------------------------------|-5--------------------------------|
|---------------------------------|----------------------------------|
|---------------------------------|----------------------------------|
|---------------------------------|----------------------------------|
|
| S S S S S S S S S S S S S S S S   S  S S S S S S S S S S S S S S S
|---------------------------------|-5--5-5-5-5-5-5-5-5-5-5-5-5-5-5-5-|
|---------------------------------|-6--6-6-6-6-6-6-6-6-6-6-6-6-6-6-6-|
|---------------------------------|-5--5-5-5-5-5-5-5-5-5-5-5-5-5-5-5-|
|-5-5-5-5-5-5-5-5-5-5-5-5-5-5-5-5-|-3--3-3-3-3-3-3-3-3-3-3-3-3-3-3-3-|
|-3-3-3-3-3-3-3-3-3-3-3-3-3-3-3-3-|----------------------------------|
|---------------------------------|----------------------------------|
|
| S S S S S S S S S S S S S S S S   S  S S S S S S S S S S S S S S S
|---------------------------------|-5--5-5-5-5-5-5-5-5-5-5-5-5-5-5-5-|
|-5-5-5-5-5-5-5-5-5-5-5-5-5-5-5-5-|-6--6-6-6-6-6-6-6-6-6-6-6-6-6-6-6-|
|---------------------------------|-5--5-5-5-5-5-5-5-5-5-5-5-5-5-5-5-|
|-2-2-2-2-2-2-2-2-2-2-2-2-2-2-2-2-|-3--3-3-3-3-3-3-3-3-3-3-3-3-3-3-3-|
|---------------------------------|----------------------------------|
|---------------------------------|----------------------------------|


  Q.           E   +Q        Q         Q       E   E    E.     S +E    E
|-7------------7---(7)-------7-------|-----------------10------8-(8)---7---|
|-0------------0---(0)-------0-------|-8-----------8-------------------0---|
|------------------------------------|-0-----------0----7------5-(5)-------|
|------------------------------------|-------------------------------------|
|------------------------------------|-------------------------------------|
|------------------------------------|-------------------------------------|
|
| S  S S S S S S S  S  S S S S S S S   S S S S S S S S  S  S S S  S  S S S
|------------------------------------|-------------------------------------|
|------------------------------------|-------------------------------------|
|-4--4-4-4-4-4-4-4--4--4-4-4-4-4-4-4-|-------------------------------------|
|-2--2-2-2-2-2-2-2--2--2-2-2-2-2-2-2-|-------------------------------------|
|------------------------------------|-5-5-5-5-5-5-5-5--5--5-5-5--5--5-5-5-|
|------------------------------------|-3-3-3-3-3-3-3-3--3--3-3-3--3--3-3-3-|
|
| S  S S S S S S S  S  S S S S S S S   S S S S S S S S  S  S S S  S  S S S
|------------------------------------|-------------------------------------|
|-5--5-5-5-5-5-5-5--5--5-5-5-5-5-5-5-|-5-5-5-5-5-5-5-5--5--5-5-5--5--5-5-5-|
|------------------------------------|-------------------------------------|
|-2--2-2-2-2-2-2-2--2--2-2-2-2-2-2-2-|-2-2-2-2-2-2-2-2--2--2-2-2--2--2-2-2-|
|------------------------------------|-------------------------------------|
|------------------------------------|-------------------------------------|


  W                                 H               E   E    E   E
|-7-------------------------------|-7-------------------8---10---8---|
|-0-------------------------------|----------------------------------|
|---------------------------------|-5-------------------5----7---5---|
|---------------------------------|----------------------------------|
|---------------------------------|----------------------------------|
|---------------------------------|----------------------------------|
|
| S S S S S S S S S S S S S S S S   S S S S S S S S S S S S  S S S S
|---------------------------------|-5-5-5-5-5-5-5-5-5-5-5-5--5-5-5-5-|
|---------------------------------|-6-6-6-6-6-6-6-6-6-6-6-6--6-6-6-6-|
|---------------------------------|-5-5-5-5-5-5-5-5-5-5-5-5--5-5-5-5-|
|-5-5-5-5-5-5-5-5-5-5-5-5-5-5-5-5-|-3-3-3-3-3-3-3-3-3-3-3-3--3-3-3-3-|
|-3-3-3-3-3-3-3-3-3-3-3-3-3-3-3-3-|----------------------------------|
|---------------------------------|----------------------------------|
|
| S S S S S S S S S S S S S S S S   S S S S S S S S S S S S  S S S S
|---------------------------------|----------------------------------|
|-5-5-5-5-5-5-5-5-5-5-5-5-5-5-5-5-|-6-6-6-6-6-6-6-6-6-6-6-6--6-6-6-6-|
|---------------------------------|----------------------------------|
|-2-2-2-2-2-2-2-2-2-2-2-2-2-2-2-2-|-3-3-3-3-3-3-3-3-3-3-3-3--3-3-3-3-|
|---------------------------------|----------------------------------|
|---------------------------------|----------------------------------|


  Q.           E   +Q        Q         Q       E   E   E.      S  +E    E
|-7------------7---(7)-------7-------|-----------------7--------------------|
|-0------------0---(0)-------0-------|-8-----------8---0------10-(10)---8---|
|------------------------------------|-0-----------0--------------------0---|
|------------------------------------|-------------------------7--(7)-------|
|------------------------------------|--------------------------------------|
|------------------------------------|--------------------------------------|
|
| S  S S S S S S S  S  S S S S S S S   S S S S S S S S S  S S  S   S  S S S
|------------------------------------|--------------------------------------|
|------------------------------------|--------------------------------------|
|-4--4-4-4-4-4-4-4--4--4-4-4-4-4-4-4-|--------------------------------------|
|-2--2-2-2-2-2-2-2--2--2-2-2-2-2-2-2-|--------------------------------------|
|------------------------------------|-5-5-5-5-5-5-5-5-5--5-5--5---5--5-5-5-|
|------------------------------------|-3-3-3-3-3-3-3-3-3--3-3--3---3--3-3-3-|
|
| S  S S S S S S S  S  S S S S S S S   S S S S S S S S S  S S  S   S  S S S
|------------------------------------|--------------------------------------|
|-5--5-5-5-5-5-5-5--5--5-5-5-5-5-5-5-|-5-5-5-5-5-5-5-5-5--5-5--5---5--5-5-5-|
|------------------------------------|--------------------------------------|
|-2--2-2-2-2-2-2-2--2--2-2-2-2-2-2-2-|-2-2-2-2-2-2-2-2-2--2-2--2---2--2-2-2-|
|------------------------------------|--------------------------------------|
|------------------------------------|--------------------------------------|


  W                                 H               Q       Q
|-7-------------------------------|-8---------------8-------8-------|
|-0-------------------------------|---------------------------------|
|---------------------------------|-5---------------5-------5-------|
|---------------------------------|---------------------------------|
|---------------------------------|---------------------------------|
|---------------------------------|---------------------------------|
|
| S S S S S S S S S S S S S S S S   S S S S S S S S S S S S E   E
|---------------------------------|-5-5-5-5-5-5-5-5-5-5-5-5---------|
|---------------------------------|-6-6-6-6-6-6-6-6-6-6-6-6---------|
|---------------------------------|-5-5-5-5-5-5-5-5-5-5-5-5-4---2---|
|-5-5-5-5-5-5-5-5-5-5-5-5-5-5-5-5-|-3-3-3-3-3-3-3-3-3-3-3-3-2---0---|
|-3-3-3-3-3-3-3-3-3-3-3-3-3-3-3-3-|---------------------------------|
|---------------------------------|---------------------------------|
|
| S S S S S S S S S S S S S S S S   S S S S S S S S S S S S S S S S
|---------------------------------|-5-5-5-5-5-5-5-5-5-5-5-5-5-5-5-5-|
|-5-5-5-5-5-5-5-5-5-5-5-5-5-5-5-5-|-6-6-6-6-6-6-6-6-6-6-6-6-6-6-6-6-|
|---------------------------------|-5-5-5-5-5-5-5-5-5-5-5-5-5-5-5-5-|
|-2-2-2-2-2-2-2-2-2-2-2-2-2-2-2-2-|-3-3-3-3-3-3-3-3-3-3-3-3-3-3-3-3-|
|---------------------------------|---------------------------------|
|---------------------------------|---------------------------------|


  H               H                 W
|-7-------------------------------|---------------------------------|
|---------------------------------|---------------------------------|
|---------------------------------|---------------------------------|
|---------------------------------|---------------------------------|
|---------------------------------|---------------------------------|
|---------------------------------|---------------------------------|
|
| S S S S S S S S S S S S S S S S   S S S S S S S S S S S S S S S S
|---------------------------------|---------------------------------|
|---------------------------------|---------------------------------|
|-4-4-4-4-4-4-4-4-4-4-4-4-4-4-4-4-|---------------------------------|
|-2-2-2-2-2-2-2-2-2-2-2-2-2-2-2-2-|---------------------------------|
|---------------------------------|-5-5-5-5-5-5-5-5-5-5-5-5-5-5-5-5-|
|---------------------------------|-3-3-3-3-3-3-3-3-3-3-3-3-3-3-3-3-|
|
| Q       Q       Q       E   S S   Q       Q       Q       E   S S
|---------------------------------|---------------------------------|
|-5-------------------------------|---------------------------------|
|-4---------------------------0-0-|---------------------------------|
|-2-------------------------------|-5---------------------------5-5-|
|---------------------------------|-5-------------------------------|
|---------------------------------|-3-------------------------------|


  W                                 Q       Q       Q       Q
|---------------------------------|---------8-------8-------8----|
|---------------------------------|------------------------------|
|---------------------------------|------------------------------|
|---------------------------------|------------------------------|
|---------------------------------|------------------------------|
|---------------------------------|------------------------------|
|
| S S S S S S S S S S S S S S S S   S S S S S S S S S S S S E E
|---------------------------------|-5-5-5-5-5-5-5-5-5-5-5-5------|
|---------------------------------|-6-6-6-6-6-6-6-6-6-6-6-6------|
|---------------------------------|-5-5-5-5-5-5-5-5-5-5-5-5-4-2--|
|-5-5-5-5-5-5-5-5-5-5-5-5-5-5-5-5-|-3-3-3-3-3-3-3-3-3-3-3-3-2-0--|
|-3-3-3-3-3-3-3-3-3-3-3-3-3-3-3-3-|------------------------------|
|---------------------------------|------------------------------|
|
| S S E   Q       H                 S S S S S S S S S S S S E E
|---------------------------------|-5-5-5-5-5-5-5-5-5-5-5-5------|
|---------------------------------|-6-6-6-6-6-6-6-6-6-6-6-6------|
|-5-5-5---------------------------|-5-5-5-5-5-5-5-5-5-5-5-5-4-2--|
|-5-5-5---------------------------|-3-3-3-3-3-3-3-3-3-3-3-3-2-0--|
|---------------------------------|------------------------------|
|-8-8-8---------------------------|------------------------------|


  H               H                 W
|-7-------------------------------|---------------------------------|
|---------------------------------|---------------------------------|
|---------------------------------|---------------------------------|
|---------------------------------|---------------------------------|
|---------------------------------|---------------------------------|
|---------------------------------|---------------------------------|
|
| S S S S S S S S S S S S S S S S   S S S S S S S S S S S S S S S S
|---------------------------------|---------------------------------|
|---------------------------------|---------------------------------|
|-4-4-4-4-4-4-4-4-4-4-4-4-4-4-4-4-|---------------------------------|
|-2-2-2-2-2-2-2-2-2-2-2-2-2-2-2-2-|---------------------------------|
|---------------------------------|-5-5-5-5-5-5-5-5-5-5-5-5-5-5-5-5-|
|---------------------------------|-3-3-3-3-3-3-3-3-3-3-3-3-3-3-3-3-|
|
| Q       Q       Q       E   S S   Q       Q       Q       E   S S
|---------------------------------|---------------------------------|
|-5-------------------------------|---------------------------------|
|-4---------------------------0-0-|---------------------------------|
|-2-------------------------------|-5---------------------------5-5-|
|---------------------------------|-5-------------------------------|
|---------------------------------|-3-------------------------------|


  W                                 Q       Q       Q       Q
|---------------------------------|---------8-------8-------8----|
|---------------------------------|------------------------------|
|---------------------------------|------------------------------|
|---------------------------------|------------------------------|
|---------------------------------|------------------------------|
|---------------------------------|------------------------------|
|
| S S S S S S S S S S S S S S S S   S S S S S S S S S S S S E E
|---------------------------------|-5-5-5-5-5-5-5-5-5-5-5-5------|
|---------------------------------|-6-6-6-6-6-6-6-6-6-6-6-6------|
|---------------------------------|-5-5-5-5-5-5-5-5-5-5-5-5-4-2--|
|-5-5-5-5-5-5-5-5-5-5-5-5-5-5-5-5-|-3-3-3-3-3-3-3-3-3-3-3-3-2-0--|
|-3-3-3-3-3-3-3-3-3-3-3-3-3-3-3-3-|------------------------------|
|---------------------------------|------------------------------|
|
| S S E   Q       H                 S S S S S S S S S S S S E E
|---------------------------------|-5-5-5-5-5-5-5-5-5-5-5-5------|
|---------------------------------|-6-6-6-6-6-6-6-6-6-6-6-6------|
|-5-5-5---------------------------|-5-5-5-5-5-5-5-5-5-5-5-5-4-2--|
|-5-5-5---------------------------|-3-3-3-3-3-3-3-3-3-3-3-3-2-0--|
|---------------------------------|------------------------------|
|-8-8-8---------------------------|------------------------------|


  H               H                 W
|-7-------------------------------|---------------------------------|
|---------------------------------|---------------------------------|
|---------------------------------|---------------------------------|
|---------------------------------|---------------------------------|
|---------------------------------|---------------------------------|
|---------------------------------|---------------------------------|
|
| S S S S S S S S S S S S S S S S   S S S S S S S S S S S S S S S S
|---------------------------------|---------------------------------|
|---------------------------------|---------------------------------|
|-4-4-4-4-4-4-4-4-4-4-4-4-4-4-4-4-|---------------------------------|
|-2-2-2-2-2-2-2-2-2-2-2-2-2-2-2-2-|---------------------------------|
|---------------------------------|-5-5-5-5-5-5-5-5-5-5-5-5-5-5-5-5-|
|---------------------------------|-3-3-3-3-3-3-3-3-3-3-3-3-3-3-3-3-|
|
| Q       Q       Q       E   S S   Q       Q       Q       E   S S
|---------------------------------|---------------------------------|
|-5-------------------------------|---------------------------------|
|-4---------------------------0-0-|---------------------------------|
|-2-------------------------------|-5---------------------------5-5-|
|---------------------------------|-5-------------------------------|
|---------------------------------|-3-------------------------------|


  W                                 Q       Q       Q       Q
|---------------------------------|---------8-------8-------8----|
|---------------------------------|------------------------------|
|---------------------------------|------------------------------|
|---------------------------------|------------------------------|
|---------------------------------|------------------------------|
|---------------------------------|------------------------------|
|
| S S S S S S S S S S S S S S S S   S S S S S S S S S S S S E E
|---------------------------------|-5-5-5-5-5-5-5-5-5-5-5-5------|
|---------------------------------|-6-6-6-6-6-6-6-6-6-6-6-6------|
|---------------------------------|-5-5-5-5-5-5-5-5-5-5-5-5-4-2--|
|-5-5-5-5-5-5-5-5-5-5-5-5-5-5-5-5-|-3-3-3-3-3-3-3-3-3-3-3-3-2-0--|
|-3-3-3-3-3-3-3-3-3-3-3-3-3-3-3-3-|------------------------------|
|---------------------------------|------------------------------|
|
| S S E   Q       H                 S S S S S S S S S S S S E E
|---------------------------------|-5-5-5-5-5-5-5-5-5-5-5-5------|
|---------------------------------|-6-6-6-6-6-6-6-6-6-6-6-6------|
|-5-5-5---------------------------|-5-5-5-5-5-5-5-5-5-5-5-5-4-2--|
|-5-5-5---------------------------|-3-3-3-3-3-3-3-3-3-3-3-3-2-0--|
|---------------------------------|------------------------------|
|-8-8-8---------------------------|------------------------------|


  H               H                 W
|-7-------------------------------|---------------------------------|
|---------------------------------|---------------------------------|
|---------------------------------|---------------------------------|
|---------------------------------|---------------------------------|
|---------------------------------|---------------------------------|
|---------------------------------|---------------------------------|
|
| S S S S S S S S S S S S S S S S   S S S S S S S S S S S S S S S S
|---------------------------------|---------------------------------|
|---------------------------------|---------------------------------|
|-4-4-4-4-4-4-4-4-4-4-4-4-4-4-4-4-|---------------------------------|
|-2-2-2-2-2-2-2-2-2-2-2-2-2-2-2-2-|---------------------------------|
|---------------------------------|-5-5-5-5-5-5-5-5-5-5-5-5-5-5-5-5-|
|---------------------------------|-3-3-3-3-3-3-3-3-3-3-3-3-3-3-3-3-|
|
| Q       Q       Q       E   S S   Q       Q       Q       E   S S
|---------------------------------|---------------------------------|
|-5-------------------------------|---------------------------------|
|-4---------------------------0-0-|---------------------------------|
|-2-------------------------------|-5---------------------------5-5-|
|---------------------------------|-5-------------------------------|
|---------------------------------|-3-------------------------------|


  W                                 Q       Q       Q       Q
|---------------------------------|---------8-------8-------8----|
|---------------------------------|------------------------------|
|---------------------------------|------------------------------|
|---------------------------------|------------------------------|
|---------------------------------|------------------------------|
|---------------------------------|------------------------------|
|
| S S S S S S S S S S S S S S S S   S S S S S S S S S S S S E E
|---------------------------------|-5-5-5-5-5-5-5-5-5-5-5-5------|
|---------------------------------|-6-6-6-6-6-6-6-6-6-6-6-6------|
|-------------------





Comments


Popular X Japan tabs & chords
Dahlia 2 Bass Tabs
Jade Bass Tabs
Kurenai Chords
Art Of Life 1 Tabs
Endless Rain 1 Tabs
Endless Rain 3 Tabs
Ill Kill You Tabs
Ill Kill You 1 Tabs
Last Song Tabs
Longing Tabs


Song lyrics



↑ Back to top | Tablatures and chords are parodies/interpretations of the original songs. You may use it for private study, scholarship, research or language learning purposes only
© 2014 AZChords.com Contact us | Privacy policy | DMCA | Add/correct tabs | Request tabs | Top 50 tabs