>
 >
Blue Blood

Blue Blood Guitar Tabs

X Japan - Blue Blood chords, tabs, tablatures, lyrics

Guitar lessons | Add/correct | Request | Top 50 tabs Artists:  A B C D E F G H I J K L M N O P Q R S T U V W X Y Z 0-9

Blue Blood Guitar Tabs – X Japan

CD, Sheet music, Poster

Do you like Blue Blood? Share with your friends now
Bass TabsTabs

BLUE BLOOD
As recorded by X Japan


	



Gtr I (Eb Ab Db Gb Bb Eb) - 'Untitled'
Gtr II (Eb Ab Db Gb Bb Eb) - 'Untitled'
Gtr III (Eb Ab Db Gb Bb Eb) - 'Untitled'

  Q=187
 4/4
  Gtrs I, II
  E S S S S S S E  E  E  E   E S S S S S S E E +E  E
|--------------------------|-------------------------|
|-9---------------10-10-10-|-9-------------7-7-(7)-8-|
|-9---------------10-10-10-|-9-------------7-7-(7)-8-|
|-9---------------10-10-10-|-9-------------7-7-(7)-8-|
|--------------------------|-------------------------|
|---0-0-0-0-0-0-0----------|---0-0-0-0-0-0-----------|


  E S S S S S S E  E  E  E
|---------------------------|
|-9---------------10-10-10--|
|-9---------------10-10-10--|
|-9---------------10-10-10--|
|---------------------------|
|---0-0-0-0-0-0-0-----------|


   E S S  E S S E  E E E   E S S S S S S E  E  E  E   E S S S S S S E E +E  E
|------------------------|--------------------------|--------------------------|
|-12-----10-----9-10-9-7-|-9---------------10-10-10-|-9-------------7-7-(7)-8--|
|-12-----10-----9-10-9-7-|-9---------------10-10-10-|-9-------------7-7-(7)-8--|
|-12-----10-----9-10-9-7-|-9---------------10-10-10-|-9-------------7-7-(7)-8--|
|------------------------|--------------------------|--------------------------|
|----0-0----0-0----------|---0-0-0-0-0-0-0----------|---0-0-0-0-0-0------------|


  E S S S S S S E  E  E  E
|--------------------------|
|-9---------------10-10-10-|
|-9---------------10-10-10-|
|-9---------------10-10-10-|
|--------------------------|
|---0-0-0-0-0-0-0----------|


   E S S  E S S E  E E E   E S S S S S S E  E  E  E
|------------------------|---------------------------|
|-12-----10-----9-10-9-7-|-9---------------10-10-10--|
|-12-----10-----9-10-9-7-|-9---------------10-10-10--|
|-12-----10-----9-10-9-7-|-9---------------10-10-10--|
|------------------------|---------------------------|
|----0-0----0-0----------|---0-0-0-0-0-0-0-----------|


  E S S S S S S E E +E  E   E S S S S S S E  E  E  E    E S S  E S S E  E E E
|-------------------------|--------------------------|-------------------------|
|-9-------------7-7-(7)-8-|-9---------------10-10-10-|-12-----10-----9-10-9-7--|
|-9-------------7-7-(7)-8-|-9---------------10-10-10-|-12-----10-----9-10-9-7--|
|-9-------------7-7-(7)-8-|-9---------------10-10-10-|-12-----10-----9-10-9-7--|
|-------------------------|--------------------------|-------------------------|
|---0-0-0-0-0-0-----------|---0-0-0-0-0-0-0----------|----0-0----0-0-----------|


  E S S S S S S E  E  E  E
|--------------------------|
|-9---------------10-10-10-|
|-9---------------10-10-10-|
|-9---------------10-10-10-|
|--------------------------|
|---0-0-0-0-0-0-0----------|


  E S S S S S S E E +E  E   E S S S S S S E  E  E  E
|-------------------------|--------------------------|
|-9-------------7-7-(7)-8-|-9---------------10-10-10-|
|-9-------------7-7-(7)-8-|-9---------------10-10-10-|
|-9-------------7-7-(7)-8-|-9---------------10-10-10-|
|-------------------------|--------------------------|
|---0-0-0-0-0-0-----------|---0-0-0-0-0-0-0----------|


  Gtr I
   E S S  E S S E  E E E   H     H       H     H      Q   Q   Q   Q
|------------------------|------------|-------------|----------------|
|-12-----10-----9-10-9-7-|------------|-------------|----------------|
|-12-----10-----9-10-9-7-|------------|-------------|----------------|
|-12-----10-----9-10-9-7-|-9----10----|-12----10----|-9--10--12--10--|
|------------------------|-7-----8----|-10-----8----|-7---8--10---8--|
|----0-0----0-0----------|------------|-------------|----------------|
|
| Gtr II
|  E S S  E S S E  E E E   H     H       H     H      Q   Q   Q   Q
|------------------------|------------|-------------|----------------|
|-12-----10-----9-10-9-7-|------------|-------------|----------------|
|-12-----10-----9-10-9-7-|------------|-------------|----------------|
|-12-----10-----9-10-9-7-|-6-----7----|--9-----7----|-6---7---9---7--|
|------------------------|------------|-------------|----------------|
|----0-0----0-0----------|------------|-------------|----------------|


   E  E  E  E  Q    Q     E E +E  E E E +E  E
|-----------------------|---------------------|
|-----------------------|---------------------|
|-----------------------|---------------------|
|-----------------------|---------------------|
|-----------------------|---------------------|
|-12-13-12-10-12--------|-8-8-(8)-8-7-7-(7)-3-|
|
|  E  E  E  E  E E +Q     E E +E  E E E +E  E
|-----------------------|---------------------|
|-----------------------|---------------------|
|-----------------------|---------------------|
|--6--7--6--4--6--------|---------------------|
|----------------5-(5)--|-3-3-(3)-3-5-5-(5)-5-|
|-----------------------|-1-1-(1)-1-3-3-(3)-3-|


   E   S S S S S S S S S S S S S S
|-----------------------------------|
|-14--------------------------------|
|-14--------------------------------|
|-14--------------------------------|
|------0-0-0-0-0-0-0-0-0-0-0-0-0-0--|
|-----------------------------------|
|
|  S S S S E   S S E   S S S S S S
|-----------------------------------|
|-----------------------------------|
|----------5------------------------|
|----------5-------7----------------|
|--0-0-0-0---------7----------------|
|--------------5-5-----5-5-5-5-5-5--|


   E   S S S S  E   E  E  +E   E    E   S S S S S S S S S S S S S S
|--------------------------------|----------------------------------|
|-12-----------14-----12-(12)-13-|-14-------------------------------|
|-12-----------14-----12-(12)-13-|-14-------------------------------|
|-12-----------14-----12-(12)-13-|-14-------------------------------|
|------0-0-0-0------0------------|------0-0-0-0-0-0-0-0-0-0-0-0-0-0-|
|--------------------------------|----------------------------------|
|
|  S S S S S S  S S E  E  +E   E    S S S S E   S S E   S S S S S S
|----------------------7--(7)--8-|----------------------------------|
|----------------------8--(8)--9-|----------------------------------|
|----------------------7--(7)--8-|----------5-----------------------|
|--------------------------------|----------5-------7---------------|
|--------------------------------|------------------7---------------|
|--5-5-5-5-5-5--5-5-5------------|--5-5-5-5-----5-5-----5-5-5-5-5-5-|


   E   S S S S  E   E  E  +E   E    Q  Q  Q  Q     Q   E E  Q    E  E
|--------------------------------|--------------|---------------------|
|-12-----------14-----12-(12)-11-|-10-----------|---------------------|
|-12-----------14-----12-(12)-11-|-10-----------|-12------------------|
|-12-----------14-----12-(12)-11-|-10-----------|-12-----9--9---12-13-|
|------0-0-0-0------0------------|-----8-----8--|-10--10--------10-11-|
|--------------------------------|--------8-----|---------------------|
|
|  S S S S S S  S S E  E  +E   E    Q  Q  Q  Q     Q   E E +Q    Q
|----------------------7--(7)--6-|--------------|---------------------|
|----------------------8--(8)--7-|--------------|---------------------|
|----------------------7--(7)--6-|--------------|--------7-(7)--------|
|--------------------------------|--7--------7--|--9---9---------9----|
|--------------------------------|-----8--------|---------------------|
|--5-5-5-5-5-5--5-5-5------------|--------8-----|---------------------|


   E S S S S S S E  E  +E   E    E S S S S S S E  E  +E   E
|-----------------------------|-----------------------------|
|------------------12-(12)-13-|-14---------------12-(12)-13-|
|------------------12-(12)-13-|-14---------------12-(12)-13-|
|-14---------------12-(12)-13-|-14---------------12-(12)-13-|
|-12-0-0-0-0-0-0-0------------|----0-0-0-0-0-0-0------------|
|-----------------------------|-----------------------------|
|
|  E S S S S S S E  E  +E   E    E S S S S S S E  E  +E   E
|-----------------------------|-----------------------------|
|------------------12-(12)-13-|-14---------------12-(12)-13-|
|------------------12-(12)-13-|-14---------------12-(12)-13-|
|-10---------------12-(12)-13-|-14---------------12-(12)-13-|
|----0-0-0-0-0-0-0------------|----0-0-0-0-0-0-0------------|
|-----------------------------|-----------------------------|


   E   S S  S S S S  S S S S S S S S
|-------------------------------------|
|-14----------------------------------|
|-14----------------------------------|
|-14----------------------------------|
|------0-0--0-0-0-0--0-0-0-0-0-0-0-0--|
|-------------------------------------|
|
|  S S S S  E   S S  E   S S S S S S
|-------------------------------------|
|-------------------------------------|
|-------------------------------------|
|-------------------------------------|
|--0-0-0-0-15---0-0-12---0-0-0-0-0-0--|
|----------15-------12----------------|


   E   S S S S  E   E  E  +E   E    E   S S  S S S S  S S S S S S S S
|--------------------------------|------------------------------------|
|-12-----------14-----12-(12)-13-|-14---------------------------------|
|-12-----------14-----12-(12)-13-|-14---------------------------------|
|-12-----------14-----12-(12)-13-|-14---------------------------------|
|------0-0-0-0------0------------|------0-0--0-0-0-0--0-0-0-0-0-0-0-0-|
|--------------------------------|------------------------------------|
|
|  S S S S S S  S S E  E  +E   E    S S S S  E   S S  E   S S S S S S
|--------------------------------|------------------------------------|
|---------------------12-(12)-13-|------------------------------------|
|---------------------12-(12)-13-|------------------------------------|
|---------------------12-(12)-13-|------------------------------------|
|--0-0-0-0-0-0--0-0-0------------|--0-0-0-0-15---0-0-12---0-0-0-0-0-0-|
|--------------------------------|----------15-------12---------------|


   E   S S S S  E   E  E  +E   E    Q   Q  Q  Q     Q   E E  Q    Q
|--------------------------------|---------------|-------------------|
|-12-----------14-----12-(12)-11-|-10------------|-------------------|
|-12-----------14-----12-(12)-11-|-10------------|-12----------------|
|-12-----------14-----12-(12)-11-|-10------------|-12-----9--9-------|
|------0-0-0-0------0------------|------8-----8--|-10--10--------10--|
|--------------------------------|---------8-----|-------------------|
|
|  S S S S S S  S S E  E  +E   E    Q   Q  Q  Q     Q   E E +Q    Q
|--------------------------------|---------------|-------------------|
|---------------------12-(12)-11-|---------------|--------3-(3)------|
|---------------------12-(12)-11-|------------2--|--4---4---------4--|
|---------------------12-(12)-11-|---------------|-------------------|
|--0-0-0-0-0-0--0-0-0------------|-12------3-----|-------------------|
|--------------------------------|-----13--------|-------------------|


   E S S S S S S E  E  E  E
|--9---------------10-10-10-|
|-10---------------11-11-11-|
|--9---------------10-10-10-|
|---------------------------|
|---------------------------|
|----0-0-0-0-0-0-0----------|
|
|  E S S S S S S E  E  E  E
|---------------------------|
|------------------15-15-15-|
|--5---------------15-15-15-|
|------------------15-15-15-|
|---------------------------|
|----5-5-5-5-5-5-5----------|


   E S S S S S S  E  E  E  E    E S S S S S S E  E  E  E
|--9--------------7--7--7--8-|--9---------------10-10-10-|
|-10--------------8--8--8--9-|-10---------------11-11-11-|
|--9--------------7--7--7--8-|--9---------------10-10-10-|
|----------------------------|---------------------------|
|----------------------------|---------------------------|
|----0-0-0-0-0-0-------------|----0-0-0-0-0-0-0----------|
|
|  E S S S S S S  E  E  E  E    E S S S S S S E  E  E  E
|----------------------------|---------------------------|
|-14-------------12-12-12-13-|-14---------------15-15-15-|
|-14-------------12-12-12-13-|-14---------------15-15-15-|
|-14-------------12-12-12-13-|-14---------------15-15-15-|
|----------------------------|---------------------------|
|----0-0-0-0-0-0-------------|----0-0-0-0-0-0-0----------|


   E S S  E S S  E  E  E  E    E S S S S S S E  E  E  E
|-12-----10------9-10--9--7-|--9---------------10-10-10-|
|-13-----11-----10-11-10--8-|-10---------------11-11-11-|
|-12-----10------9-10--9--7-|--9---------------10-10-10-|
|---------------------------|---------------------------|
|---------------------------|---------------------------|
|----0-0----0-0-------------|----0-0-0-0-0-0-0----------|
|
|  E S S  E S S  E  E  E  E    E S S S S S S E  E  E  E
|---------------------------|---------------------------|
|-17-----15-----14-15-14-12-|-14---------------15-15-15-|
|-17-----15-----14-15-14-12-|-14---------------15-15-15-|
|-17-----15-----14-15-14-12-|-14---------------15-15-15-|
|---------------------------|---------------------------|
|----0-0----0-0-------------|----0-0-0-0-0-0-0----------|


   E S S S S S S  E  E  E  E
|--9--------------7--7--7--8--|
|-10--------------8--8--8--9--|
|--9--------------7--7--7--8--|
|-----------------------------|
|-----------------------------|
|----0-0-0-0-0-0--------------|
|
|  E S S S S S S  E  E  E  E
|-----------------------------|
|-14-------------12-12-12-13--|
|-14-------------12-12-12-13--|
|-14-------------12-12-12-13--|
|-----------------------------|
|----0-0-0-0-0-0--------------|


   E S S S S S S E  E  E  E    E S S  E S S  E  E  E  E
|--9---------------10-10-10-|-12-----10------9-10--9--7-|
|-10---------------11-11-11-|-13-----11-----10-11-10--8-|
|--9---------------10-10-10-|-12-----10------9-10--9--7-|
|---------------------------|---------------------------|
|---------------------------|---------------------------|
|----0-0-0-0-0-0-0----------|----0-0----0-0-------------|
|
|  E S S S S S S E  E  E  E    E S S  E S S  E  E  E  E
|---------------------------|---------------------------|
|-14---------------15-15-15-|-17-----15-----14-15-14-12-|
|-14---------------15-15-15-|-17-----15-----14-15-14-12-|
|-14---------------15-15-15-|-17-----15-----14-15-14-12-|
|---------------------------|---------------------------|
|----0-0-0-0-0-0-0----------|----0-0----0-0-------------|


   E   S S  S S S S  S S S S S S S S
|--9---------------------------------|
|-10---------------------------------|
|--9---------------------------------|
|------------------------------------|
|------------------------------------|
|------5-5--5-5-5-5--5-5-5-5-5-5-5-5-|
|
|  S S S S  E   S S  E   S S S S S S
|------------------------------------|
|------------------------------------|
|------------------------------------|
|----------10------------------------|
|--0-0-0-0-10---0-0-12---0-0-0-0-0-0-|
|-------------------12---------------|


  E   S S S S  E   E  E  +E   E    E   S S  S S S S  S S S S S S S S
|-7------------9------7--(7)--8-|--9---------------------------------|
|-8-----------10------8--(8)--9-|-10---------------------------------|
|-7------------9------7--(7)--8-|--9---------------------------------|
|-------------------------------|------------------------------------|
|-------------------------------|------------------------------------|
|-----5-5-5-5------5------------|------5-5--5-5-5-5--5-5-5-5-5-5-5-5-|
|
| S S S S S S  S S E  E  +E   E    S S S S  E   S S  E   S S S S S S
|-------------------------------|------------------------------------|
|--------------------12-(12)-13-|------------------------------------|
|--------------------12-(12)-13-|------------------------------------|
|--------------------12-(12)-13-|------------------------------------|
|-0-0-0-0-0-0--0-0-0------------|--0-0-0-0-15---0-0-12---0-0-0-0-0-0-|
|-------------------------------|----------15-------12---------------|


  E   S S S S  E   E  E  +E   E    Q   Q  Q  Q    Q  E E  Q   E E
|-7------------9------7--(7)--6-|--5------------|-3---------------|
|-8-----------10------8--(8)--7-|--6------------|-3-----------3-4-|
|-7------------9------7--(7)--6-|--5------------|-0----4--4---0-1-|
|-------------------------------|------3-----3--|----5------------|
|-------------------------------|---------3-----|-----------------|
|-----5-5-5-5------5------------|---------------|-----------------|
|
| S S S S S S  S S E  E  +E   E    Q   Q  Q  Q    Q  E E +Q   Q
|-------------------------------|---------------|-----------------|
|--------------------12-(12)-11-|---------------|------3-(3)------|
|--------------------12-(12)-11-|------------2--|-4--4--------4---|
|--------------------12-(12)-11-|---------------|-----------------|
|-0-0-0-0-0-0--0-0-0------------|-12------3-----|-----------------|
|-------------------------------|-----13--------|-----------------|


  E S S S S S S E  E  +E   E    E S S S S S S E  E  +E   E
|----------------------------|-----------------------------|
|-5---------------12-(12)-13-|-14---------------12-(12)-13-|
|-2---------------12-(12)-13-|-14---------------12-(12)-13-|
|-----------------12-(12)-13-|-14---------------12-(12)-13-|
|---0-0-0-0-0-0-0------------|----0-0-0-0-0-0-0------------|
|----------------------------|-----------------------------|
|
| E S S S S S S E  E  +E   E    E S S S S S S E  E  +E   E
|------------------7--(7)--8-|--9----------------7--(7)--8-|
|------------------8--(8)--9-|-10----------------8--(8)--9-|
|-5----------------7--(7)--8-|--9----------------7--(7)--8-|
|----------------------------|-----------------------------|
|----------------------------|-----------------------------|
|---5-5-5-5-5-5-5------------|----5-5-5-5-5-5-5------------|


   E   S S S S S S S S S S S S S S
|-----------------------------------|
|-14--------------------------------|
|-14--------------------------------|
|-14--------------------------------|
|------0-0-0-0-0-0-0-0-0-0-0-0-0-0--|
|-----------------------------------|
|
|  S S S S E   S S E   S S S S S S
|-----------------------------------|
|-----------------------------------|
|----------5------------------------|
|----------5-------7----------------|
|------------------7----------------|
|--5-5-5-5-----5-5-----5-5-5-5-5-5--|


   E   S S S S  E   E  E  +E   E    E   S S S S S S S S S S S S S S
|--------------------------------|----------------------------------|
|-12-----------14-----12-(12)-13-|-14-------------------------------|
|-12-----------14-----12-(12)-13-|-14-------------------------------|
|-12-----------14-----12-(12)-13-|-14-------------------------------|
|------0-0-0-0------0------------|------0-0-0-0-0-0-0-0-0-0-0-0-0-0-|
|--------------------------------|----------------------------------|
|
|  S S S S S S  S S E  E  +E   E    S S S S E   S S E   S S S S S S
|----------------------7--(7)--8-|----------------------------------|
|----------------------8--(8)--9-|----------------------------------|
|----------------------7--(7)--8-|----------5-----------------------|
|--------------------------------|----------5-------7---------------|
|--------------------------------|------------------7---------------|
|--5-5-5-5-5-5--5-5-5------------|--5-5-5-5-----5-5-----5-5-5-5-5-5-|


   E   S S S S  E   E  E  +E   E    W              W                 W
|--------------------------------|--------------|-----------------|-------|
|-12-----------14-----12-(12)-11-|--------------|-----------------|-------|
|-12-----------14-----12-(12)-11-|-10-----------|-12--------------|-------|
|-12-----------14-----12-(12)-11-|-10-----------|-12--------------|-10----|
|------0-0-0-0------0------------|--------------|-10--------------|-10----|
|--------------------------------|-13-----------|-----------------|--8----|
|
|  S S S S S S  S S E  E  +E   E    Q  Q  Q  Q     Q  E E +Q   Q     W
|----------------------7--(7)--6-|--------------|-----------------|-------|
|----------------------8--(8)--7-|--------------|-----------------|-------|
|----------------------7--(7)--6-|--------------|-------7-(7)-----|--9----|
|--------------------------------|--7--------7--|--9--9--------9--|-------|
|--------------------------------|-----8--------|-----------------|-------|
|--5-5-5-5-5-5--5-5-5------------|--------8-----|-----------------|-------|


   Q.   E +E  E E E   W          W          E S S E S S S S E S S S S
|-------------------|----------|-3--------|----------------------------|
|--9----5-(5)-3-2---|-6--------|-3--------|-5-----4---------6----------|
|--9--------------2-|-5--------|-0--------|-2-----2---------2----------|
|--9----------------|-3--------|----------|----------------------------|
|--7----------------|----------|----------|---0-0---0-0-0-0---0-0-0-0--|
|-------------------|----------|----------|----------------------------|
|
|  Q.   E +E  E E E   W          W          E S S E S S S S E S S S S
|-------------------|----------|----------|----------------------------|
|--9----------------|----------|-3--------|----------------------------|
|--9----7-(7)-5-4---|-5--------|-4--------|----------------------------|
|--9--------------5-|-7--------|-5--------|-2--------------------------|
|-------------------|-8--------|----------|-0-0-0-0-0-0-0-0-0-0-0-0-0--|
|-12----------------|----------|----------|----------------------------|


  E S S S S E +E  E +E  E
|-----------------1-(1)---|
|-5-----------------------|
|-2---------3-(3)-------3-|
|-------------------------|
|---0-0-0-0---------------|
|-------------------------|
|
| E S S S S E +E  E +E  E
|-------------------------|
|-------------------------|
|-------------------------|
|-2---------3-(3)-3-(3)-3-|
|-0-0-0-0-0-0-(0)-0-(0)-0-|
|-------------------------|


  E S S E S S S S E S S S S   E S S S S E +E  E +E  E
|---------------------------|-----------1-(1)-------1-|
|-5-----4---------6---------|-5-----------------------|
|-2-----2---------2---------|-2---------------3-(3)---|
|---------------------------|-------------------------|
|---0-0---0-0-0-0---0-0-0-0-|---0-0-0-0---------------|
|---------------------------|-------------------------|
|
| E S S E S S S S E S S S S   E S S S S E +E  E +E  E
|---------------------------|-------------------------|
|---------------------------|-------------------------|
|---------------------------|-------------------------|
|-2-------------------------|-2---------3-(3)-3-(3)-3-|
|-0-0-0-0-0-0-0-0-0-0-0-0-0-|-0-0-0-0-0-0-(0)-0-(0)-0-|
|---------------------------|-------------------------|


  E S S E S S S S E S S S S   E S S S S E +E  E +E  E
|---------------------------|-----------------1-(1)---|
|-5-----4---------6---------|-5-----------------------|
|-2-----2---------2---------|-2---------3-(3)-------3-|
|---------------------------|-------------------------|
|---0-0---0-0-0-0---0-0-0-0-|---0-0-0-0---------------|
|---------------------------|-------------------------|
|
| E S S E S S S S E S S S S   E S S S S E +E  E +E  E
|---------------------------|-------------------------|
|---------------------------|-------------------------|
|---------------------------|-------------------------|
|-2-------------------------|-2---------3-(3)-3-(3)-3-|
|-0-0-0-0-0-0-0-0-0-0-0-0-0-|-0-0-0-0-0-0-(0)-0-(0)-0-|
|---------------------------|-------------------------|


  E S S E S S S S E S S S S
|----------------------------|
|-5-----4---------6----------|
|-2-----2---------2----------|
|----------------------------|
|---0-0---0-0-0-0---0-0-0-0--|
|----------------------------|
|
| E S S E S S S S E S S S S
|----------------------------|
|----------------------------|
|----------------------------|
|-2--------------------------|
|-0-0-0-0-0-0-0-0-0-0-0-0-0--|
|----------------------------|


  E S S S S E +E  E +E  E   Q  E E +H       Q  E E +H
|-----------1-(1)-------1-|---------------|---------------|
|-5-----------------------|-5--5-5-(5)----|-6--6-6-(6)----|
|-2---------------3-(3)---|-2--2-2-(2)----|-3--3-3-(3)----|
|-------------------------|---------------|---------------|
|---0-0-0-0---------------|---------------|---------------|
|-------------------------|---------------|---------------|
|
| E S S S S E +E  E +E  E   Q  E E +H       Q  E E +H
|-------------------------|---------------|---------------|
|-------------------------|---------------|---------------|
|-------------------------|---------------|---------------|
|-2---------3-(3)-3-(3)-3-|-2--2-2-(2)----|-3--3-3-(3)----|
|-0-0-0-0-0-0-(0)-0-(0)-0-|-0--0-0-(0)----|-1--1-1-(1)----|
|-------------------------|---------------|---------------|


  E S S S S S S E S S S S S S   E S S S S S S E S S S S S S   Q  E E +H
|---------------3-------------|-2---------------------------|---------------|
|-5-------------1-------------|-0-------------6-------------|-5--5-5-(5)----|
|-2---------------------------|---------------3-------------|-2--2-2-(2)----|
|-----------------------------|-----------------------------|---------------|
|---0-0-0-0-0-0---0-0-0-0-0-0-|---0-0-0-0-0-0---0-0-0-0-0-0-|---------------|
|-----------------------------|-----------------------------|---------------|
|
| E S S S S S S E S S S S S S   E S S S S S S E S S S S S S   Q  E E +H
|-----------------------------|-----------------------------|---------------|
|-----------------------------|-----------------------------|---------------|
|-----------------------------|-----------------------------|---------------|
|-2---------------------------|-2---------------------------|-2--2-2-(2)----|
|-0-0-0-0-0-0-0-0-0-0-0-0-0-0-|-0-0-0-0-0-0-0-0-0-0-0-0-0-0-|-0--0-0-(0)----|
|-----------------------------|-----------------------------|---------------|


  Q  E E +H       E S S S S S S E S S S S S S   E S S S S S S E S S S S S S
|---------------|---------------3-------------|-2----------------------------|
|-6--6-6-(6)----|-5-------------1-------------|-0-------------6--------------|
|-3--3-3-(3)----|-2---------------------------|---------------3--------------|
|---------------|-----------------------------|------------------------------|
|---------------|---0-0-0-0-0-0---0-0-0-0-0-0-|---0-0-0-0-0-0---0-0-0-0-0-0--|
|---------------|-----------------------------|------------------------------|
|
| Q  E E +H       E S S S S S S E S S S S S S   E S S S S S S E S S S S S S
|---------------|-----------------------------|------------------------------|
|---------------|-----------------------------|------------------------------|
|---------------|-----------------------------|------------------------------|
|-3--3-3-(3)----|-2---------------------------|-2----------------------------|
|-1--1-1-(1)----|-0-0-0-0-0-0-0-0-0-0-0-0-0-0-|-0-0-0-0-0-0-0-0-0-0-0-0-0-0--|
|---------------|-----------------------------|------------------------------|


  Q.   E +Q   Q    Q.   E +Q   Q    Q.   E +Q   Q     Q.   E +Q   Q
|----------------|----------------|----------------|-----------------|
|-3----1-(1)--3--|-5----3-(3)--5--|-6----5-(5)--3--|--5----3-(3)--1--|
|----------------|----------------|----------------|-----------------|
|----------------|----------------|----------------|-----------------|
|----------------|----------------|----------------|-----------------|
|----------------|----------------|----------------|-----------------|
|
| W                W                W                +H.          Q
|----------------|----------------|-5--------------|-(5)-------------|
|-3--------------|-5--------------|-6--------------|-(6)----------5--|
|-3--------------|-5--------------|-7--------------|-(7)----------5--|
|-3--------------|-5--------------|-7--------------|-(7)----------5--|
|-1--------------|-3--------------|-5--------------|-(5)-------------|
|----------------|----------------|----------------|--------------8--|
|
| Gtr III
| Q.   E +Q   Q    Q.   E +Q   Q    Q.   E +Q   Q     Q.   E +Q   Q
|-1----0-(0)--1--|-3----1-(1)--3--|-5----3-(3)--1--|--3----1-(1)--0--|
|----------------|----------------|----------------|-----------------|
|----------------|----------------|----------------|-----------------|
|----------------|----------------|----------------|-----------------|
|----------------|----------------|----------------|-----------------|
|----------------|----------------|----------------|-----------------|


  Q.   E +Q   Q    Q.   E +Q   Q    Q.   E E E E E    E  E E  E  E  E  E  E
|----------------|----------------|----------------|------------------------|
|-3----1-(1)--3--|-5----3-(3)--5--|-3----3-5-3-1-3-|--5--3-5--7--8-10-12-10-|
|----------------|----------------|----------------|------------------------|
|----------------|----------------|----------------|------------------------|
|----------------|----------------|----------------|------------------------|
|----------------|----------------|----------------|------------------------|
|
| W                W                W                +H          Q     Q
|----------------|----------------|----------------|------------------------|
|----------------|-5--------------|-7--------------|-(7)--------------------|
|-7--------------|-5--------------|-7--------------|-(7)--------------------|
|-8--------------|-5--------------|-7--------------|-(7)---------7-----8----|
|-8--------------|----------------|-5--------------|-(5)---------5-----6----|
|-6--------------|-8--------------|----------------|------------------------|
|
| Q.   E +Q   Q    Q.   E +Q   Q    Q.   E E E E E    E  E E  E  E  E  E  E
|-1----0-(0)--1--|-3----1-(1)--3--|-2----2-3-2-----|------------------------|
|----------------|----------------|------------5-7-|--8--7-8-10-12-13-15-13-|
|----------------|----------------|----------------|------------------------|
|----------------|----------------|----------------|------------------------|
|----------------|----------------|----------------|------------------------|
|----------------|----------------|----------------|------------------------|


   W                                    W
|------------------------------------|---------------------------------|
|-12---------------------------------|-12------------------------------|
|-12---------------------------------|-12------------------------------|
|--9---------------------------------|--0------------------------------|
|------------------------------------|---------------------------------|
|-12---------------------------------|--3------------------------------|
|
|  E S S S S S S  E  S S   S  S  S S    E S S  S S S S  E S S  S S S S
|------------------------------------|---------------------------------|
|------------------------------------|---------------------------------|
|------------------------------------|---------------------------------|
|--9--------------9------------------|---------------------------------|
|--7-7-7-7-7-7-7--7--7-7---7--7--7-7-|--5---------------5--------------|
|------------------------------------|--3-3-3--3-3-3-3--3-3-3--3-3-3-3-|
|
|  H              E  E    +E     E      Q      Q        Q      Q
|------------------------------------|---------------------------------|
|------------------------------------|---------------------------------|
|------------------------------------|---------------------------------|
|------------------------------------|---------------------------------|
|-14-------------12-12---(12)---12---|-14-----12-------12-----14-------|
|-15-------------14-15---(15)---14---|-15-----14-------15-----15-------|


  H              E  E   +E    E      H                E   E  +E   E
|---------------------------------|---------------------------------|
|---------------------------------|---------------------------------|
|-2--------------2----------------|---------------------------------|
|-4--------------4--4---(4)-------|--9--------------------7--(7)--8-|
|-------------------5---(5)---5---|--7----------------------------6-|
|-----------------------------7---|----------------------10-(10)----|
|
| E S S S S S S  E  S S  S  S S S    E S S S S  S S   E   E  +E   E
|---------------------------------|---------------------------------|
|---------------------------------|---------------------------------|
|-2--------------2----------------|--4----------------4---2--(2)--3-|
|-0-0-0-0-0-0-0--0--0-0--0--0-0-0-|--2-2-2-2-2--2-2---2---0--(0)--1-|
|---------------------------------|---------------------------------|
|---------------------------------|---------------------------------|
|
| H              E  E    E    E      Q     E    E    +E   E   E   E
|---------------------------------|---------------------------------|
|---------------------------------|---------------------------------|
|---------------------------------|---------------------------------|
|-7----------------------7----7---|--9-----7----9----(9)--7---7-----|
|-9-------------12--9---10----9---|-10-----9---10---(10)--9--10---9-|
|---------------14-10-------------|------------------------------10-|


  W                                   H              H
|----------------------------------|--------------------------------|
|----------------------------------|--------------------------------|
|----------------------------------|--------------------------------|
|-9--------------------------------|-----------------5--------------|
|-7--------------------------------|--7--------------7--------------|
|----------------------------------|--8-----------------------------|
|
| E S S  S S S S E  S S   S  S S S    E S S S S S S  E S S  S S S S
|----------------------------------|--------------------------------|
|----------------------------------|--------------------------------|
|-4--------------4-----------------|--------------------------------|
|-2-2-2--2-2-2-2-2--2-2---2--2-2-2-|--5--------------5--------------|
|----------------------------------|--3-3-3-3-3-3-3--3-3-3--3-3-3-3-|
|----------------------------------|--------------------------------|
|
| Q      Q       E  E    +E    E      Q     Q        Q      Q
|----------------------------------|--------------------------------|
|----------------------------------|--------------------------------|
|----------------------------------|--------------------------------|
|--------9-------7--7----(7)---7---|--9-----7--------7------9-------|
|-7-----10-------9-10---(10)---9---|-10-----9-------10-----10-------|
|-7--------------------------------|--------------------------------|


  H               H                 H               Q   Q
|---------------------------------|--------------------------|
|---------------------------------|-3------------------------|
|-----------------2---------------|-2---------------2---3----|
|-4---------------4---------------|-----------------0---1----|
|-5-------------------------------|--------------------------|
|---------------------------------|--------------------------|
|
| E  S S S S S S  E S S  S S  S S   E  S S  S S S S Q   Q
|---------------------------------|--------------------------|
|---------------------------------|--------------------------|
|-2---------------2---------------|-2---------------2---3----|
|-0--0-0-0-0-0-0--0-0-0--0-0--0-0-|-0--0-0--0-0-0-0-0---1----|
|---------------------------------|--------------------------|
|---------------------------------|--------------------------|
|
| Q.         E    E E    E    E     E  E    E   E   E E E  E
|---------------------------------|--------------------------|
|---------------------------------|-----------------5-7-8-10-|
|---------------------------------|---------7---7---5-7-9--7-|
|-7----------7----------------7---|-7--9---10---9------------|
|-9----------9----7-7----9---10---|-9-10---------------------|
|----------------10-8---10--------|--------------------------|


  W                                 W
|---------------------------------|------------------------------|
|---------------------------------|------------------------------|
|-4-------------------------------|------------------------------|
|-2-------------------------------|------------------------------|
|---------------------------------|-5----------------------------|
|---------------------------------|-3----------------------------|
|
| E S S S S S S  E S S  S  S  S S   E S S  S S S S E S S S S S S
|---------------------------------|------------------------------|
|---------------------------------|------------------------------|
|-4--------------4----------------|------------------------------|
|-2-2-2-2-2-2-2--2-2-2--2--2--2-2-|------------------------------|
|---------------------------------|-5--------------5-------------|
|---------------------------------|-3-3-3--3-3-3-3-3-3-3-3-3-3-3-|
|
| H              E E   +E     E     Q      Q       Q     Q
|-7--------------7----------------|-7------7-------------7-------|
|-8-------------10-8---(8)---10---|-8-----10-------8-----8-------|
|------------------9---(9)----7---|----------------9-------------|
|---------------------------------|------------------------------|
|---------------------------------|------------------------------|
|---------------------------------|------------------------------|


   H              E E   +E     E     H               E   E  +E  E
|----------------------------------|------------------------------|
|----------------------------------|------------------------------|
|--2--------------2----------------|------------------------------|
|--4--------------4-4---(4)--------|-9-------------------7--(7)-8-|
|-------------------5---(5)----5---|-7--------------------------6-|
|------------------------------7---|--------------------10-(10)---|
|
|  E S S S S S S  E S S  S  S  S S   E S S  S S S S  E   E  +E  E
|----------------------------------|------------------------------|
|----------------------------------|------------------------------|
|--2--------------2----------------|-4---------------4---2--(2)-3-|
|--0-0-0-0-0-0-0--0-0-0--0--0--0-0-|-2-2-2--2-2-2-2--2---0--(0)-1-|
|----------------------------------|------------------------------|
|----------------------------------|------------------------------|
|
|  H              E E    E     E     Q      E   E   +E   E   E  E
|----------------------------------|-7----------7---(7)-----------|
|-10-------------10-7----8----10---|-8-----10---8---(8)-10---8--7-|
|--7--------------7-7----9-----7---|--------7------------7---9--7-|
|----------------------------------|------------------------------|
|----------------------------------|------------------------------|
|----------------------------------|------------------------------|


  W                                 H             H
|---------------------------------|-----------------------------|
|---------------------------------|-----------------------------|
|---------------------------------|-----------------------------|
|-9-------------------------------|---------------5-------------|
|-7-------------------------------|-7-------------7-------------|
|---------------------------------|-8---------------------------|
|
| E S S S S S S  E S S  S  S  S S   E S S S S S S E S S S S S S
|---------------------------------|-----------------------------|
|---------------------------------|-----------------------------|
|-4--------------4----------------|-----------------------------|
|-2-2-2-2-2-2-2--2-2-2--2--2--2-2-|-5-------------5-------------|
|---------------------------------|-3-3-3-3-3-3-3-3-3-3-3-3-3-3-|
|---------------------------------|-----------------------------|
|
| Q     Q        E E   +E     E     W
|-------7--------7----------------|-----------------------------|
|-------8-------10-8---(8)---10---|-----------------------------|
|-9----------------9---(9)----7---|-----------------------------|
|-9-------------------------------|-----------------------------|
|---------------------------------|-----------------------------|
|---------------------------------|-----------------------------|


  W                             +H              Q  Q    W
|-----------------------------|-----------------------|-------------|
|-----------------------------|-----------------------|-------------|
|-----------------------------|-----------------------|-------------|
|-4---------------------------|-(4)-------------7--9--|-7-----------|
|-5---------------------------|-(5)-------------5--7--|-8-----------|
|-----------------------------|-----------------------|-------------|
|
| E S S S S S S E S S S S S S    E  S S S S S S Q  Q    W
|-----------------------------|-----------------------|-------------|
|-----------------------------|-----------------------|-------------|
|-2-------------2-------------|--2--------------2--4--|-5-----------|
|-0-0-0-0-0-0-0-0-0-0-0-0-0-0-|--0--0-0-0-0-0-0-0--2--|-3-----------|
|-----------------------------|-----------------------|-------------|
|-----------------------------|-----------------------|-------------|
|
| W                              W                      Q  Q  Q  Q
|-----------------------------|-----------------------|----8-----5--|
|-----------------------------|-----------------------|-------6-----|
|-----------------------------|-----------------------|-------------|
|-----------------------------|-----------------------|-------------|
|-----------------------------|-----------------------|-8-----------|
|-----------------------------|-----------------------|-------------|


   W               W             W              W
|---------------|--------------|-------------|-----------------|
|---------------|--------------|-------------|-----------------|
|---------------|--------------|-------------|-----------------|
|--9------------|--------------|-9-----------|-10--------------|
|-10------------|-10-----------|-7-----------|--8--------------|
|---------------|--8-----------|-------------|-----------------|
|
|  W               W             W              W
|---------------|--------------|-------------|-----------------|
|--3------------|--------------|-------------|-----------------|
|--0------------|--------------|-4-----------|--5--------------|
|---------------|--5-----------|-2-----------|--3--------------|
|---------------|--3-----------|-------------|-----------------|
|---------------|--------------|-------------|-----------------|
|
|  Q  Q   Q  Q     Q  Q  Q  Q    Q  Q  Q  Q     Q   Q   Q   Q
|--7-----10-----|--------------|-------------|-----------------|
|-----8------8--|--------8-----|-9-----------|-------------10--|
|---------------|-----9-----9--|----9-----9--|---------10------|
|---------------|-10-----------|-------9-----|-----10----------|
|---------------|--------------|-------------|--8--------------|
|---------------|--------------|-------------|-----------------|


   W                 Q   Q   Q   Q     Q    Q   Q    Q    W
|-----------------|-----------------|-------------------|-------------|
|-----------------|-----------------|-------------------|-------------|
|-----------------|-----------------|-------------------|-2-----------|
|-12--------------|-----10------12--|------14-------17--|-3-----------|
|-10--------------|-----------------|-------------------|-------------|
|-----------------|--8------10------|-12-------15-------|-------------|
|
|  W                 W                +W                  W
|-----------------|-----------------|-------------------|-------------|
|--3--------------|-----------------|-------------------|-------------|
|--0--------------|-----------------|-------------------|-5-----------|
|-----------------|--2--------------|-(2)---------------|-3-----------|
|-----------------|--0--------------|-(0)---------------|-------------|
|-----------------|-----------------|-------------------|-------------|
|
|  Q   Q   Q   Q     Q   Q   Q   Q     Q    Q   E E  Q    Q  Q  Q  Q
|-----------------|-----------------|-----------7-5-----|-------1--5--|
|-12--------------|-----------------|-10-------------5--|----1--------|
|-----12----------|----------9------|-------9-----------|-------------|
|---------12------|-----10------10--|-------------------|-3-----------|
|-------------10--|-12--------------|-------------------|-------------|
|-----------------|-----------------|-------------------|-------------|


  W             W             W                 W
|-------------|-------------|----------------|-----------------|
|-0-----------|-------------|----------------|-----------------|
|-0-----------|-------------|-4--------------|--5--------------|
|-------------|-5-----------|-2--------------|--3--------------|
|-------------|-3-----------|----------------|-----------------|
|-------------|-------------|----------------|-----------------|
|
| W             W             W                 W
|-------------|-------------|----------------|-----------------|
|-3-----------|-------------|----------------|-----------------|
|-0-----------|-------------|-4--------------|--5--------------|
|-------------|-5-----------|-2--------------|--3--------------|
|-------------|-3-----------|----------------|-----------------|
|-------------|-------------|----------------|-----------------|
|
| Q  Q  Q  Q    Q  Q  Q  Q    Q   Q   Q   Q     Q   Q   Q   Q
|-7-----------|-------3--8--|----12----------|-----------------|
|----8--------|----5--------|-9------12------|-----------------|
|-------7-----|-5-----------|----------------|-------------14--|
|----------5--|-------------|------------14--|---------15------|
|-------------|-------------|----------------|-----15----------|
|-------------|-------------|----------------|-13--------------|


   W                W          +Q   Q   Q   Q     H     H
|-----------------|-9--------|-(9)--9--10--12--|-13----15----|
|--3--------------|----------|-----------------|-------------|
|--0--------------|----------|-----------------|-------------|
|-----------------|----------|-----------------|-------------|
|-----------------|----------|-----------------|-------------|
|-----------------|----------|-----------------|-------------|
|
|  W                W          +Q   Q   Q   Q     H     H
|-----------------|-5--------|-(5)--5---7---8--|-10----12----|
|--3--------------|----------|-----------------|-------------|
|--0--------------|----------|-----------------|-------------|
|-----------------|----------|-----------------|-------------|
|-----------------|----------|-----------------|-------------|
|-----------------|----------|-----------------|-------------|
|
|  Q   Q   Q   Q    W           W                 W
|-----------------|----------|-----------------|-------------|
|-12--------------|----------|-----------------|-------------|
|-----12----------|----------|-----------------|-------------|
|---------12------|----------|-----------------|-------------|
|-------------10--|----------|-----------------|-------------|
|-----------------|----------|-----------------|-------------|


   Q   Q   Q   Q     W           +Q    Q   Q   Q     W
|-15--15--13--12--|-10--------|-(10)--10--12--13--|-12----|
|-----------------|-----------|-------------------|-------|
|-----------------|-----------|-------------------|-------|
|-----------------|-----------|-------------------|-------|
|-----------------|-----------|-------------------|-------|
|-----------------|-----------|-------------------|-------|
|
|  Q   Q   Q   Q     W           +Q    Q   Q   Q     W
|-12--12--10---8--|--7--------|--(7)---7---8--10--|--8----|
|-----------------|-----------|-------------------|-------|
|-----------------|-----------|-------------------|-------|
|-----------------|-----------|-------------------|-------|
|-----------------|-----------|-------------------|-------|
|-----------------|-----------|-------------------|-------|


   H     H       H.       Q     Q   Q   Q   Q     H.       Q
|-11----14----|-12-----------|-12--11--12--12--|-12-----------|
|-------------|--------------|-----------------|--------------|
|-------------|----------12--|-----------------|----------12--|
|-------------|--------------|-----------------|--------------|
|-------------|--------------|-----------------|--------------|
|-------------|--------------|-----------------|--------------|
|
|  H     H       H.       Q     Q   Q   Q   Q     H.       Q
|--7----11----|-15-----------|-15--14--15--15--|-15-----------|
|-------------|----------13--|-----------------|----------13--|
|-------------|--------------|-----------------|--------------|
|-------------|--------------|-----------------|--------------|
|-------------|--------------|-----------------|--------------|
|-------------|--------------|-----------------|--------------|


   Q   Q   Q   Q     H     H       Q   Q   Q   Q     W
|-12--11--12--12--|-14----12----|-11--12------14--|-15----|
|-----------------|-------------|---------12------|-------|
|-----------------|-------------|-----------------|-------|
|-----------------|-------------|-----------------|-------|
|-----------------|-------------|-----------------|-------|
|-----------------|-------------|-----------------|-------|
|
|  Q   Q   Q   Q     H     H       Q   Q   Q   Q     W
|-15--14--15--15--|-17----15----|-----------------|-------|
|-----------------|-------------|-------------16--|-17----|
|-----------------|-------------|-16--17----------|-------|
|-----------------|-------------|---------17------|-------|
|-----------------|-------------|-----------------|-------|
|-----------------|-------------|-----------------|-------|


   +H      +Q.    E    +E   E  E  E  E  E  E  E
|-(15)----(15)---17-|-(17)-15-17----------------|
|-------------------|------------19-20----19----|
|-------------------|------------------21----19-|
|-------------------|---------------------------|
|-------------------|---------------------------|
|-------------------|---------------------------|
|
|  +H      +Q.    E    +E   E  E  E  E  E  E  E
|-------------------|---------------------------|
|-(17)----(17)---17-|-(17)-17-19----17----15----|
|-------------------|------------19----17----16-|
|-------------------|---------------------------|
|-------------------|---------------------------|
|-------------------|---------------------------|


   +E   E  E  E  E  E  E  E    +E   E  E  E  E  E  E  E
|---------------------------|---------------------------|
|---------15----------------|---------------------------|
|-(19)-17----16-17----------|---------------------------|
|------------------19-21-19-|-(19)-17-19----------------|
|---------------------------|------------21-22----21----|
|---------------------------|------------------24----22-|
|
|  +E   E  E  E  E  E  E  E    +E   E  E  E  E  E  E  E
|---------------------------|---------------------------|
|---------12----10----------|----------7-----5-----3----|
|-(16)-14----12----11-12-11-|-(11)--9-----7-----5-----4-|
|---------------------------|---------------------------|
|---------------------------|---------------------------|
|---------------------------|---------------------------|


   E E E  E  E  E  Q    E S  S  E  S  S  E  S  S  E  S  S
|---------------------|-----------------------------------|
|----1-3--------------|-----------------------------------|
|---------4--5--------|-----------------------------------|
|---------------7--9--|-----------------------------------|
|---------------------|--------------------------------17-|
|-24------------------|-8-8-10-12-14-15-17-19-20-22-19----|
|
|  E E E  E  E  E  Q    W
|---------------------|-----------------------------------|
|---------------------|-----------------------------------|
|--5------------------|-5---------------------------------|
|----7-9--------------|-5---------------------------------|
|--------10-12--------|-3---------------------------------|
|--------------14-15--|-----------------------------------|


   E  S  S  E  S  S  E  S  S  S  S S  S
|---------------------------------------|
|------------------------------------19-|
|-------------------------------21------|
|----------------------21-22-24---------|
|-19-21-22-24-21-22-24------------------|
|---------------------------------------|
|
|  W
|---------------------------------------|
|--3------------------------------------|
|--2------------------------------------|
|--0------------------------------------|
|---------------------------------------|
|---------------------------------------|


   H     Q     E  E    W
|-------------------|--------------------|
|-20----20----20-19-|-20-----------------|
|-------------------|--------------------|
|-------------------|--------------------|
|-------------------|--------------------|
|-------------------|--------------------|
|
|  H     E  E  E  E    Q   E E  E E  E E
|-------10-12-15-14-|-15--17---17---17---|
|--5----------------|--------------------|
|--4----------------|--------------------|
|--2----------------|--------------------|
|-------------------|--------------------|
|-------------------|--------------------|


   E  E  +E   E  E  E  +E   E    E  E  +E   E  E  E  +E   E
|-----------------------------|-----------------------------|
|----22-(22)----20---------22-|----24-(24)----22------------|
|-----------------------------|--------------------------21-|
|-22---------22----22-(22)----|-24---------24----24-(24)----|
|-----------------------------|-----------------------------|
|-----------------------------|-----------------------------|
|
|  E  E  +E   E  E  E  +E   E    E  E  +E   E  E  E  +E   E
|-----------------------------|----15-(15)------------------|
|----18-(18)----17---------18-|---------------18------------|
|-----------------------------|-16---------16----16-(16)-17-|
|-19---------19----19-(19)----|-----------------------------|
|-----------------------------|-----------------------------|
|-----------------------------|-----------------------------|


   E  E  S  S  E  S  S  E  S  S  E    S  S  E  S  S  E  S  S  E  S  S  E
|----------------19-------20-------|-19-------17-15----19-------17-15----|
|----20-22-20-------20-------20----|----20----------15----20----------15-|
|-19----------19-------19-------19-|-------19----------------19----------|
|----------------------------------|-------------------------------------|
|----------------------------------|-------------------------------------|
|----------------------------------|-------------------------------------|
|
|  E  E  S  S  E  S  S  E  S  S  E    S  S  E  S  S  E  S  S  E  S  S  E
|----------------15-------17-------|-15----------------15----------------|
|----17-18-17-------17-------17----|----17----18-17-------17----18-17----|
|-16----------16-------16-------16-|-------16-------16-------16-------16-|
|----------------------------------|-------------------------------------|
|----------------------------------|-------------------------------------|
|----------------------------------|-------------------------------------|


   S  S  S  S  S  S  S  S  S  S  S  S  S  S  S  S    Q   E  E  +H
|-------------------------------------------------|-------------------|
|-17-17-17-17-19-19-19-19-20-20-20-20-------------|-19--20-22-(22)----|
|-------------------------------------21-21-21-21-|-------------------|
|-------------------------------------------------|-------------------|
|-------------------------------------------------|-------------------|
|-------------------------------------------------|-------------------|
|
|  S  S  S  S  S  S  S  S  S  S  S  S  S  S  S  S    Q   E  E  +H
|-------------------------------------------------|-------------------|
|-------------15-15-15-15-17-17-17-17-------------|-15--17-19-(19)----|
|-17-17-17-17-------------------------17-17-17-17-|-------------------|
|-------------------------------------------------|-------------------|
|-------------------------------------------------|-------------------|
|-------------------------------------------------|-------------------|


   W                                  W
|----------------------------------|--------------------------------|
|-12-------------------------------|--------------------------------|
|-12-------------------------------|--------------------------------|
|--9-------------------------------|--------------------------------|
|--7-------------------------------|--5-----------------------------|
|----------------------------------|--3-----------------------------|
|
|  E S S S S S S E  S S   S  S S S    E S S S S S S  E S S  S S S S
|----------------------------------|--------------------------------|
|----------------------------------|--------------------------------|
|--4-------------4-----------------|--------------------------------|
|--2-2-2-2-2-2-2-2--2-2---2--2-2-2-|--------------------------------|
|----------------------------------|--5--------------5--------------|
|----------------------------------|--3-3-3-3-3-3-3--3-3-3--3-3-3-3-|
|
| Gtr III
|  H             E  E    +E    E      Q     Q        Q      Q
|----------------------------------|--------------------------------|
|----------------------------------|--------------------------------|
|----------------------------------|--------------------------------|
|--9-------------7--7----(7)---7---|--9-----7--------7------9-------|
|-10-------------9-10---(10)---9---|-10-----9-------10-----10-------|
|----------------------------------|--------------------------------|


  H             E  E   +E    E      H                E   E  +E   E
|--------------------------------|---------------------------------|
|--------------------------------|---------------------------------|
|-2-------------2----------------|---------------------------------|
|-4-------------4--4---(4)-------|--9--------------------7--(7)--8-|
|------------------5---(5)---5---|--7----------------------------6-|
|----------------------------7---|----------------------10-(10)----|
|
| E S S S S S S E  S S  S  S S S    E S S S S  S S   E   E  +E   E
|--------------------------------|---------------------------------|
|--------------------------------|---------------------------------|
|-2-------------2----------------|--4----------------4---2--(2)--3-|
|-0-0-0-0-0-0-0-0--0-0--0--0-0-0-|--2-2-2-2-2--2-2---2---0--(0)--1-|
|--------------------------------|---------------------------------|
|--------------------------------|---------------------------------|
|
| H             E  E    E    E      Q     E    E    +E   E   E   E
|--------------------------------|---------------------------------|
|--------------------------------|---------------------------------|
|--------------------------------|---------------------------------|
|-7-------------7-------7----7---|--9-----7----9----(9)--7---7-----|
|-9-------------9--9---10----9---|-10-----9---10---(10)--9--10---9-|
|-----------------10-------------|------------------------------10-|


  W                                   H              H
|----------------------------------|--------------------------------|
|----------------------------------|--------------------------------|
|----------------------------------|--------------------------------|
|-9--------------------------------|-----------------5--------------|
|-7--------------------------------|--7--------------7--------------|
|----------------------------------|--8-----------------------------|
|
| E S S  S S S S E  S S   S  S S S    E S S S S S S  E S S  S S S S
|----------------------------------|--------------------------------|
|----------------------------------|--------------------------------|
|-4--------------4-----------------|--------------------------------|
|-2-2-2--2-2-2-2-2--2-2---2--2-2-2-|--5--------------5--------------|
|----------------------------------|--3-3-3-3-3-3-3--3-3-3--3-3-3-3-|
|----------------------------------|--------------------------------|
|
| Q      Q       E  E    +E    E      Q     Q        Q      Q
|----------------------------------|--------------------------------|
|----------------------------------|--------------------------------|
|----------------------------------|--------------------------------|
|--------9-------7--7----(7)---7---|--9-----7--------7------9-------|
|-7-----10-------9-10---(10)---9---|-10-----9-------10-----10-------|
|-7--------------------------------|--------------------------------|


  H               H                 H               Q   Q
|---------------------------------|--------------------------|
|---------------------------------|-3------------------------|
|-----------------2---------------|-2---------------2---3----|
|-4---------------4---------------|-----------------0---1----|
|-5-------------------------------|--------------------------|
|---------------------------------|--------------------------|
|
| E  S S S S S S  E S S  S S  S S   E  S S  S S S S Q   Q
|---------------------------------|--------------------------|
|---------------------------------|--------------------------|
|-2---------------2---------------|-2---------------2---3----|
|-0--0-0-0-0-0-0--0-0-0--0-0--0-0-|-0--0-0--0-0-0-0-0---1----|
|---------------------------------|--------------------------|
|---------------------------------|--------------------------|
|
| Q.         E    E E    E    E     E  E    E   E   E E E  E
|---------------------------------|--------------------------|
|---------------------------------|-----------------5-7-8-10-|
|---------------------------------|---------7---7---5-7-9--7-|
|-7----------7----------------7---|-7--9---10---9------------|
|-9----------9----7-7----9---10---|-9-10---------------------|
|----------------10-8---10--------|--------------------------|


  W                                 W
|---------------------------------|------------------------------|
|---------------------------------|------------------------------|
|-4-------------------------------|------------------------------|
|-2-------------------------------|------------------------------|
|---------------------------------|-5----------------------------|
|---------------------------------|-3----------------------------|
|
| E S S S S S S  E S S  S  S  S S   E S S  S S S S E S S S S S S
|---------------------------------|------------------------------|
|---------------------------------|------------------------------|
|-4--------------4----------------|------------------------------|
|-2-2-2-2-2-2-2--2-2-2--2--2--2-2-|------------------------------|
|---------------------------------|-5--------------5-------------|
|---------------------------------|-3-3-3--3-3-3-3-3-3-3-3-3-3-3-|
|
| H              E E   +E     E     Q      Q       Q     Q
|-7--------------7----------------|-7------7-------------7-------|
|-8-------------10-8---(8)---10---|-8-----10-------8-----8-------|
|------------------9---(9)----7---|----------------9-------------|
|---------------------------------|------------------------------|
|---------------------------------|------------------------------|
|---------------------------------|------------------------------|


   H              E E   +E     E     H               E   E +E  E
|----------------------------------|-----------------------------|
|----------------------------------|-----------------------------|
|--2--------------2----------------|-----------------------------|
|--4--------------4-4---(4)--------|-9-------------------7-(7)-8-|
|-------------------5---(5)----5---|-7-------------------5-(5)-6-|
|------------------------------7---|-----------------------------|
|
|  E S S S S S S  E S S  S  S  S S   E S S  S S S S  E   E +E  E
|----------------------------------|-----------------------------|
|----------------------------------|-----------------------------|
|--2--------------2----------------|-4---------------4---2-(2)-3-|
|--0-0-0-0-0-0-0--0-0-0--0--0--0-0-|-2-2-2--2-2-2-2--2---0-(0)-1-|
|----------------------------------|-----------------------------|
|----------------------------------|-----------------------------|
|
|  H              E E    E     E     Q      E   E   +E   E  E  E
|----------------------------------|-7----------7---(7)----------|
|-10-------------10-7----8----10---|-8-----10---8---(8)-10--8--7-|
|--7--------------7-7----9-----7---|--------7------------7--9--7-|
|----------------------------------|-----------------------------|
|----------------------------------|-----------------------------|
|----------------------------------|-----------------------------|


  W                                 H             H
|---------------------------------|-----------------------------|
|---------------------------------|-----------------------------|
|---------------------------------|-----------------------------|
|-9-------------------------------|---------------5-------------|
|-7-------------------------------|-7-------------7-------------|
|---------------------------------|-8---------------------------|
|
| E S S S S S S  E S S  S  S  S S   E S S S S S S E S S S S S S
|---------------------------------|-----------------------------|
|---------------------------------|-----------------------------|
|-4--------------4----------------|-----------------------------|
|-2-2-2-2-2-2-2--2-2-2--2--2--2-2-|-5-------------5-------------|
|---------------------------------|-3-3-3-3-3-3-3-3-3-3-3-3-3-3-|
|---------------------------------|-----------------------------|
|
| Q     Q        E E   +E     E     W
|-------7--------7----------------|-----------------------------|
|-------8-------10-8---(8)---10---|-----------------------------|
|-9----------------9---(9)----7---|-----------------------------|
|-9-------------------------------|-----------------------------|
|---------------------------------|-----------------------------|
|---------------------------------|-----------------------------|


  W                             +H              Q  Q    W
|-----------------------------|-----------------------|-------------|
|-----------------------------|------





Comments


Popular X Japan tabs & chords
Ill Kill You Bass Tabs
Art Of Life Chords
Crucify My Love Chords
Endless Rain 1 Tabs
Endless Rain 5 Tabs
Kurenai Tabs
Longing 2 Tabs
Love Replica Tabs
Silent Jealousy Intro Tabs
Crucify My Love Ukulele


Song lyrics



↑ Back to top | Tablatures and chords are parodies/interpretations of the original songs. You may use it for private study, scholarship, research or language learning purposes only
© 2014 AZChords.com Contact us | Privacy policy | DMCA | Add/correct tabs | Request tabs | Top 50 tabs