» » »

Whatever It Takes, Green Light, Yellow Light, Stop Tabs (ver.2)

Artists:  A B C D E F G H I J K L M N O P Q R S T U V W X Y Z # 

Green Light, Yellow Light, Stop Tabs (ver.2)

Whatever It Takes Tabs
Rating:
0/5 (0 votes)
Green Light, Yellow Light, Stop lessons Tabs too difficult? Try these video lessons and learn fast
                - Whatever It Takes - Green Light, Yellow Light, Stop
- This tab seems to be hard, but it wasnt. Its just in order, you just have to follow it.Enjoy it.

__________

I – [1x]
BOTH GUITARS
  [00:00]  [00:05]   [00:07]
e|--------|--------|----------|
B|--------|--------|----------|
G|---66---|---66---|----------|
D|---66---|---66---|-8~-6~-4~-|
A|---44---|---44---|-8~-6~-4~-|
E|--------|--------|-6~-4~-2~-|

II – [2x]

Guitar I
e|-----------------------------------------|
B|-----------------------------------------|
G|-66666666--88888888----------------------|
D|-66666666--88888888--8888-6666--44444444-|
A|-44444444--66666666--8888-6666--44444444-|
E|---------------------6666-4444--22222222-|

Guitar II
e|-----------------------------------------|
B|---9-7-6h7---9-7-6h7---9-7-6h7---4-4-4h6-|
G|-66-6-6----66-6-6----66-6-6----66-6-6----|
D|-----------------------------------------|
A|-----------------------------------------|
E|-----------------------------------------|
   ** * *    ** * *    ** * *    ** * *

III –
BOTH GUITARS
  [00:21]    [00:26]   [00:28]
e|----------|--------|--------------------|
B|----------|--------|--------------------|
G|---66---6-|---66---|--------------------|
D|---66---6-|---66---|-8888-6666-44444444-|
A|---44-----|---44---|-8888-6666-44444444-|
E|----------|--------|-6666-4444-22222222-|
                       **** **** ********

IV –
Guitar I
e|-----------------------------------------|
B|-----------------------------------------|
G|-66666666--88888888----------------------|
D|-66666666--88888888--8888-6666--44444444-|
A|-44444444--66666666--8888-6666--44444444-|
E|---------------------6666-4444--22222222-|
   ** *** *  ** *** *  ** * ** *  ** *** *

Guitar II
e|-----------------------------------------|
B|---9-7-6h7---9-7-6h7---9-7-6h7---4-4-4h6-|
G|-66-6-6----66-6-6----66-6-6----66-6-6----|
D|-----------------------------------------|
A|-----------------------------------------|
E|-----------------------------------------|
   ** * *    ** * *    ** * *    ** * *

Guitar I
e|----------------------------------------------|
B|----------------------------------------------|
G|-66666666--88888888---------------------------|
D|-66666666--88888888--8888-6666--44-pick-slide-|
A|-44444444--66666666--8888-6666--44------------|
E|---------------------6666-4444--22---------- -|
   ** *** *  ** *** *

Guitar II
e|---------------------------------------------|
B|---9-7-6h7---9-7-6h7---6----6---6—pick-slide-|
G|-66-6-6----66-6-6----6----6---6--------------|
D|---------------------------------------------|
A|---------------------------------------------|
E|---------------------------------------------|
   ** * *    ** * *

V - CHORUS - BOTH GUITARS [2x]
e|----------------------------------------|
B|----------------------------------------|
G|-------------------5-6666666-5----------|
D|-8888888-6-4444444-5-6666666-5-66666666-|
A|-8888888-6-4444444-3-4444444-3-66666666-|
E|-6666666-4-2222222-------------44444444-|

VI –
BOTH GUITARS
  [01:03]    [01:08]   [01:10]
e|----------|--------|--------------------|
B|----------|--------|--------------------|
G|---66---6-|---66---|--------------------|
D|---66---6-|---66---|-8888-6666-44444444-|
A|---44-----|---44---|-8888-6666-44444444-|
E|----------|--------|-6666-4444-22222222-|
                       **** **** ********

VII –
Guitar I
e|-----------------------------------------|
B|-----------------------------------------|
G|-66666666--88888888----------------------|
D|-66666666--88888888--8888-6666--44444444-|
A|-44444444--66666666--8888-6666--44444444-|
E|---------------------6666-4444--22222222-|
   ** *** *  ** *** *  ** * ** *  ** *** *

Guitar II
e|-----------------------------------------|
B|---9-7-6h7---9-7-6h7---9-7-6h7---4-4-4h6-|
G|-66-6-6----66-6-6----66-6-6----66-6-6----|
D|-----------------------------------------|
A|-----------------------------------------|
E|-----------------------------------------|
   ** * *    ** * *    ** * *    ** * *

Guitar I
e|----------------------------------------------|
B|----------------------------------------------|
G|-66666666--88888888---------------------------|
D|-66666666--88888888--8888-6666--44-pick-slide-|
A|-44444444--66666666--8888-6666--44------------|
E|---------------------6666-4444--22---------- -|
   ** *** *  ** *** *

Guitar II
e|---------------------------------------------|
B|---9-7-6h7---9-7-6h7---6----6---6—pick-slide-|
G|-66-6-6----66-6-6----6----6---6--------------|
D|---------------------------------------------|
A|---------------------------------------------|
E|---------------------------------------------|
   ** * *    ** * *

VIII - CHORUS - BOTH GUITARS
e|----------------------------------------|
B|----------------------------------------|
G|-------------------5-6666666-5----------|
D|-8888888-6-4444444-5-6666666-5-66666666-|
A|-8888888-6-4444444-3-4444444-3-66666666-|
E|-6666666-4-2222222-------------44444444-|

e|----------------------------------------|
B|----------------------------------------|
G|-------------------5-6666666-5----------|
D|-8888888-6-4444444-5-6666666-5-66666666-|
A|-8888888-6-4444444-3-4444444-3-66666666-|
E|-6666666-4-2222222-------------44444444-|
                                 ********

IX – BRIDGE I – BOTH GUITARS
e|-------------------------------------------------------------|
B|-------------------------------------------------------------|
G|-------------------------------6666-6-6666-6\5---------------|
D|-8888-8-8888-8\6-4444-4-4444-4-6666-6-6666-6\5-6666-6-6666-6-|
A|-8888-8-8888-8\6-4444-4-4444-4-4444-4-4444-4\3-6666-6-6666-6-|
E|-6666-6-6666-6\4-2222-2-2222-2-----------------4444-4-4444-4-|
   ****   ****     ****   ****   ****   ****     ****   ****

e|----------------------------------------------------------------------|
B|----------------------------------------------------------------------|
G|-----------------------------------------66-6-66-6-66-6-66-6----------|
D|-66-6-66-6-66-6-66-6-44-4-44-4-44-4-44-4-66-6-66-6-66-6-66-6-66666666-|
A|-66-6-66-6-66-6-66-6-44-4-44-4-44-4-44-4-44-4-44-4-44-4-44-4-66666666-|
E|-44-4-44-4-44-4-44-4-22-2-22-2-22-2-22-2---------------------44444444-|
   **   **   **   **   **   **   **   **   **   **   **   **   ********

X - BRIDGE II –
Guitar I
e|----------------------------------------------------------|
B|----------------------------------------------------------|
G|-66-666-666-666-6----------------66-666-666-666-6---------|
D|-xx-xxx-xxx-xxx-x88-866-644-444--xx-xxx-xxx-xxx-x8~-6~-4~-|
A|-44-444-466-666-688-866-644-444--44-444-466-666-68~-6~-4~-|
E|-----------------66-644-422-222------------------6~-4~-2~-|

Guitar II
e|----------------------------------------------------------|
B|----------------------------------------------------------|
G|----------------------------------------------------------|
D|-------------------------------------------------8~-6~-4~-|
A|-------------------------------------------------8~-6~-4~-|
E|-------------------------------------------------6~-4~-2~-|

XI – BEFORE ENDING PART [3x]
Guitar I
e|-----------------------------------------|
B|-----------------------------------------|
G|-66--666-6-88--888-8---------------------|
D|-66--666-6-88--888-8-88-8-66-6-44--444-4-|
A|-44--444-4-66--666-6-88-8-66-6-44--444-4-|
E|---------------------66-6-44-4-22--222-2-|

Guitar II
e|-----------------------------------------|
B|---9-7-6h7---9-7-6h7---9-7-6h7---4-4-4h6-|
G|-66-6-6----66-6-6----66-6-6----66-6-6----|
D|-----------------------------------------|
A|-----------------------------------------|
E|-----------------------------------------|
   ** * *    ** * *    ** * *    ** * *

XII – ENDING PART I
Guitar I
e|------------------------------------------|
B|------------------------------------------|
G|-66--666-6-88--888-8----------------------|
D|-66--666-6-88--888-8-88----66----44----44-|
A|-44--444-4-66--666-6-88----66----44----44-|
E|---------------------66----44----22----22-|

Guitar II
e|---------------------------------------------|
B|---9-7-6h7---9-7-6h7---7p6---7p6---7p6---7p6-|
G|-66-6-6----66-6-6----66----66----66----66----|
D|---------------------------------------------|
A|---------------------------------------------|
E|---------------------------------------------|
   ** * *    ** * *    **    **    **    **

XIII ENDING PART II [2x]
Guitar I
e|----------------------|
B|----------------------|
G|----------------------|
D|-88----66----44----44-|
A|-88----66----44----44-|
E|-66----44----22----22-|

Guitar II
e|-------------------------|
B|---7p6---7p6---7p6---7p6-|
G|-66----66----66----66----|
D|-------------------------|
A|-------------------------|
E|-------------------------|
   **    **    **    **

XIII ENDING PART III [1x]
Guitar I
e|----------------|----|
B|----------------|----|
G|----------------|-66-|
D|-88----66----4~-|-66-|
A|-88----66----4~-|-44-|
E|-66----44----2~-|----|

Guitar II
e|----------------|----|
B|---7p6---7p6----|----|
G|-66----66----6~-|-66-|
D|----------------|-66-|
A|----------------|-44-|
E|----------------|----|
   **    **
            
Submit corrections

comments powered by Disqus
↑ Back to top | Whatever It Takes Tabs for Green Light, Yellow Light, Stop. Lyrics for acoustic guitar and electric guitar. Tablatures and chords are parodies/interpretations of the original songs. You may use it for private study, scholarship, research or language learning purposes only