» » »

Whatever It Takes, Green Light, Yellow Light, Stop Bass tabs (ver.2)

Artists:  A B C D E F G H I J K L M N O P Q R S T U V W X Y Z # 

Green Light, Yellow Light, Stop Bass tabs (ver.2)

Whatever It Takes Tabs
Rating:
0/5 (0 votes)
Green Light, Yellow Light, Stop lessons Tabs too difficult? Try these video lessons and learn fast
                - Whatever It Takes - Green Light, Yellow Light, Stop
- Easy song to play.

__________
Intro I
G|----------------------------------------------------|----|
D|---3h4p3--3h4p3--3h4p3--3h4p3--3h4p3--3h4p3--4433---|----|
A|-44-----44-----66-----66-------------------------66-|-1x-|
E|-----------------------------66-----44-----22-------|----|

G|------------------------------------------|----|
D|---3h4p3--3h4p3--3h4p3--3h4p3-------------|----|
A|-44-----44-----66-----66------------------|-1x-|
E|-----------------------------6~---4~---2~-|----|

Intro II
G|--------------------------------------|----|
D|--------------------------------------|----|
A|-44444444-66666666--------------------|-2x-|
E|-------------------6666-4444-22222222-|----|

Verse I
G|----------------------------------------------------|----|
D|---3h4p3--3h4p3--3h4p3--3h4p3--3h4p3--3h4p3--4433---|----|
A|-44-----44-----66-----66-------------------------66-|-2x-|
E|-----------------------------66-----44-----22-------|----|

G|--------------------------------------|----|
D|--------------------------------------|----|
A|-44444444-66666666--------------------|-2x-|
E|-------------------6666-4444-22222222-|----|

Chorus
G|--------------------------------------------------------------------------|----|
D|--------------------------------------------------------------------------|----|
A|--------------------------------------44444444-44444-3--------------------|-2x-|
E|-66666666-66666-4--22222222-22222-46--------------------44444444-44444444-|----|

After chorus
G|----------------------------------------------------|----|
D|---3h4p3--3h4p3--3h4p3--3h4p3--3h4p3--3h4p3--4433---|----|
A|-44-----44-----66-----66-------------------------66-|-2x-|
E|-----------------------------66-----44-----22-------|----|

Verse II
G|--------------------------------------|----|
D|--------------------------------------|----|
A|-44444444-66666666--------------------|-2x-|
E|-------------------6666-4444-22222222-|----|

Chorus
G|--------------------------------------------------------------------------|----|
D|--------------------------------------------------------------------------|----|
A|--------------------------------------44444444-44444-3--------------------|-2x-|
E|-66666666-66666-4--22222222-22222-46--------------------44444444-44444444-|----|

G|-------------------------------------------------------------------|----|
D|-------------------------------------------------------------------|----|
A|-----------------------------------4444-4--4444-43-----------------|-1x-|
E|-6666-6--6666-64--2222-2--2222-24-------------------4444-4--4444-4-|----|

G|--------------------------------------------------------------------------|----|
D|--------------------------------------------------------------------------|----|
A|--------------------------------------44444444-44444-3--------------------|-1x-|
E|-66666666-66666-4--22222222-22222-46--------------------44444444-44444444-|----|

Stop
G|----|----|
D|----|----|
A|-44-|-1x-|
E|----|----|

Ending
G|--------------|----|
D|--------------|----|
A|--------------|-1x-|
E|-6~---4~---2~-|----|

G|--------------------------------|----|
D|--------------------------------|----|
A|-44-444-466-666-6---------------|-3x-|
E|-----------------66-644-422-222-|----|

G|----------------------------|----|
D|----------------------------|----|
A|-44-444-466-666-------------|-1x-|
E|----------------66-44-22-22-|----|

G|-------------|----|
D|-------------|----|
A|-------------|-2x-|
E|-66-44-22-22-|----|

G|----------------|----|
D|----------------|----|
A|-------------44-|-1x-|
E|-66-44-2~~~-----|----|
            

comments powered by Disqus
↑ Back to top | Whatever It Takes Bass for Green Light, Yellow Light, Stop. Lyrics for acoustic guitar and electric guitar. Tablatures and chords are parodies/interpretations of the original songs. You may use it for private study, scholarship, research or language learning purposes only