» » »

Green Light, Yellow Light, Stop Tabs (ver.1)

Artists:  A B C D E F G H I J K L M N O P Q R S T U V W X Y Z # 

Green Light, Yellow Light, Stop Tabs (ver.1)

Whatever It Takes
Rating:
0/5 (0 votes)

Tabs too difficult? Try these video lessons and learn fast.
                Whatever It Takes
Green Light Yellow Light Stop Light

My favorite song by them.  Guitar 1 is rythm and i wrote that tab out first.  Guitar 2 
at the bottom and is lead.  I wrote the lyrics in for a couple parts that will be useful 
timing.  One of the chords on the harmony part is --6x6- and it may look weird but it is right.

Intro Verse
E|------------------------------------|
B|------------------------------------|
G|6--6--------------------------------|
D|6--6--------------------------------|
A|4--4--------------------------------|
E|------------------------------------|
      I walk these streets every night
E|-----------------------------------------|
B|-----------------------------------------|
G|-----------------------------------6--6--|
D|-----------------------------------6--6--|
A|-----------------------------------4--4--|
E|-----------------------------------------|
  So much I an even tell the traffic lights
E|--------------------------------------------|
B|--------------------------------------------|
G|--------------------------------------------|
D|------------------------------8-6-4---------|
A|------------------------------8-6-4----<<<<<|
E|------------------------------6-4-2----<<<<<|
  Will change on my count of 3: 1,2,1,2,3 Yeah

Intro Rhythm x2
E|---------------------------------------------------------------|
B|---------------------------------------------------------------|
G|6-6-6-6-6-6-6-6-8-8-8-8-8-8-8-8--------------------------------|
D|6-6-6-6-6-6-6-6-8-8-8-8-8-8-8-8-8-8-8-8-6-6-6-6-4-4-4-4-4-4-4-4|
A|4-4-4-4-4-4-4-4-6-6-6-6-6-6-6-6-8-8-8-8-6-6-6-6-4-4-4-4-4-4-4-4|
E|--------------------------------6-6-6-6-4-4-4-4-2-2-2-2-2-2-2-2|

Verse
E|-----------------------------------|
B|-----------------------------------|
G|6-6--------------------------------|
D|6-6--------------------------------|
A|4-4--------------------------------|
E|-----------------------------------|
     I walk these streets every night

E|------------------------------------------|
B|------------------------------------------|
G|------------------------------------6--6--|
D|------------------------------------6--6--|
A|------------------------------------4--4--|
E|------------------------------------------|
  So much I can even tell the traffic lights

E|----------------------------------------------------------------|
B|----------------------------------------------------------------|
G|----------------------------------------------------------------|
D|---------------------------------8-8-8-8-6-6-6-6-4-4-4-4--------|
A|---------------------------------8-8-8-8-6-6-6-6-4-4-4-4-4-4-4-4|
E|---------------------------------6-6-6-6-4-4-4-4-2-2-2-2-1-1-1-1|
  Will change on my count of 3...  . . . . . . . . . . . . . . . .

Pre-Chorus
E|---------------------------------------|
B|---------------------------------------|
G|66-6-66-6-66-6-66-6--------------------|
D|66-6-66-6-66-6-66-6-66-6-66-6-44-4-44-4|
A|44-4-44-4-44-4-44-4-66-6-66-6-44-4-44-4|
E|--------------------44-4-44-4-22-2-22-2|
  ..   ..   ..   ..   ..   ..   ..   ..
         Green To red          Then Back Again

E|--------------------------------------------------|
B|--------------------------------------------------|
G|66-6-66-6-66-6-66-6-------------------------------|
D|66-6-66-6-66-6-66-6-6-66-6-66-4-44-4-44-----------|
A|44-4-44-4-44-4-44-4-6-66-6-66-4-44-4-44----<<<<<<<|
E|--------------------4-44-4-44-2-22-2-22----<<<<<<<|
  ..   ..   ..   ..
           So Timed,     Watching Like Pulling Teeth

Chorus
E|---------------------------------------------------------|
B|---------------------------------------------------------|
G|--------------------------5-6--6-66666-6-5---------------|
D|8--8-888888-6-4--4-444444-5-6--6-66666-6-5-6--6-66666-6^6|
A|8--8-888888-6-4--4-444444-3-4--4-44444-4-3-6--6-66666-6^6|
E|6--6-666666-4-2--2-222222------------------4--4-44444-4^4|

Chorus Part 2
E|------------------------------------------------------------------------------|
B|------------------------------------------------------------------------------|
G|-------------------------------------------5-66-6-66-6-66-6-66-6-66-5---------|
D|88-8-88-8-88-8-88-8-88-6-44-4-44-4-44-4-44-5-66-6-66-6-66-6-66-6-66-5-66666666|
A|88-8-88-8-88-8-88-8-88-6-44-4-44-4-44-4-44-3-44-4-44-4-44-4-44-4-44-3-66666666|
E|66-6-66-6-66-6-66-6-66-4-22-2-22-2-22-2-22----------------------------44444444|

Verse 2
E|-----------------------------------|
B|-----------------------------------|
G|6-6--------------------------------|
D|6-6--------------------------------|
A|4-4--------------------------------|
E|-----------------------------------|

E|------------------------------------------|
B|------------------------------------------|
G|------------------------------------6--6--|
D|------------------------------------6--6--|
A|------------------------------------4--4--|
E|------------------------------------------|


E|----------------------------------------------------------------|
B|----------------------------------------------------------------|
G|----------------------------------------------------------------|
D|---------------------------------8-8-8-8-6-6-6-6-4-4-4-4--------|
A|---------------------------------8-8-8-8-6-6-6-6-4-4-4-4-4-4-4-4|
E|---------------------------------6-6-6-6-4-4-4-4-2-2-2-2-1-1-1-1|
                  Here we go...    . . . . . . . . . . . . . . . .

Pre-Chorus
E|---------------------------------------|
B|---------------------------------------|
G|66-6-66-6-66-6-66-6--------------------|
D|66-6-66-6-66-6-66-6-66-6-66-6-44-4-44-4|
A|44-4-44-4-44-4-44-4-66-6-66-6-44-4-44-4|
E|--------------------44-4-44-4-22-2-22-2|
  ..   ..   ..   ..   ..   ..   ..   ..
         Green To red          Then Back Again

E|--------------------------------------------------|
B|--------------------------------------------------|
G|66-6-66-6-66-6-66-6-------------------------------|
D|66-6-66-6-66-6-66-6-6-66-6-66-4-44-4-44-----------|
A|44-4-44-4-44-4-44-4-6-66-6-66-4-44-4-44----<<<<<<<|
E|--------------------4-44-4-44-2-22-2-22----<<<<<<<|
  ..   ..   ..   ..
           So Timed,     Watching Like Pulling Teeth

Chorus
E|---------------------------------------------------------|
B|---------------------------------------------------------|
G|--------------------------5-6--6-66666-6-5---------------|
D|8--8-888888-6-4--4-444444-5-6--6-66666-6-5-6--6-66666-6^6|
A|8--8-888888-6-4--4-444444-3-4--4-44444-4-3-6--6-66666-6^6|
E|6--6-666666-4-2--2-222222------------------4--4-44444-4^4|

Chorus Part 2
E|------------------------------------------------------------------------------|
B|------------------------------------------------------------------------------|
G|-------------------------------------------5-66-6-66-6-66-6-66-6-66-5---------|
D|88-8-88-8-88-8-88-8-88-6-44-4-44-4-44-4-44-5-66-6-66-6-66-6-66-6-66-5-66666666|
A|88-8-88-8-88-8-88-8-88-6-44-4-44-4-44-4-44-3-44-4-44-4-44-4-44-4-44-3-66666666|
E|66-6-66-6-66-6-66-6-66-4-22-2-22-2-22-2-22----------------------------44444444|
                                                                        ........
Bridge Part 1
E|---------------------------------------------------------------------|
B|---------------------------------------------------------------------|
G|----------------------------------5/6666-6-66-666\5------------------|
D|8888-8-88-888-8\6-4444-4-44-444-4-5/6666-6-66-666\5-6666-6-66-666-6^6|
A|8888-8-88-888-8\6-4444-4-44-444-4-3/4444-4-44-444\3-6666-6-66-666-6^6|
E|6666-6-66-666-6\4-2222-2-22-222-2-------------------4444-4-44-444-4^4|
  ....   .. ...     ....   .. ...     ....   .. ...   ....   .. ...

Bridge Part 2
E|---------------------------------------------------------------------------------------|
B|---------------------------------------------------------------------------------------|
G|-------------------------------------------5-66-6-66-6-66-6-66-6-66-5------------------|
D|88-8-88-8-88-8-88-8-88-6-44-4-44-4-44-4-44-5-66-6-66-6-66-6-66-6-66-5-66666666666666666|
A|88-8-88-8-88-8-88-8-88-6-44-4-44-4-44-4-44-3-44-4-44-4-44-4-44-4-44-3-66666666666666666|
E|66-6-66-6-66-6-66-6-66-4-22-2-22-2-22-2-22----------------------------44444444444444444|
  ..   ..   ..   ..   ..   ..   ..   ..   ..   ..   ..   ..   ..   ..   ........

harmony part
Guitar 1
E|------------------------------------------------------|
B|------------------------------------------------------|
G|66-666-666-666-666-666-666-666-66-666-666-666---------|
D|xx-xxx-xxx-xxx-xxx-xxx-xxx-xxx-xx-xxx-xxx-xxx-8~-6~-4~|
A|44-444-444-444-444-444-444-444-44-444-444-444-8~-6~-4~|
E|----------------------------------------------6~-4~-2~|

Ending Rythm x4
E|---------------------------------------------------------------|
B|---------------------------------------------------------------|
G|6-6-6-6-6-6-6-6-8-8-8-8-8-8-8-8--------------------------------|
D|6-6-6-6-6-6-6-6-8-8-8-8-8-8-8-8-8-8-8-8-6-6-6-6-4-4-4-4-4-4-4-4|
A|4-4-4-4-4-4-4-4-6-6-6-6-6-6-6-6-8-8-8-8-6-6-6-6-4-4-4-4-4-4-4-4|
E|--------------------------------6-6-6-6-4-4-4-4-2-2-2-2-2-2-2-2|
  on the 4th time dont play from  |                             |
                                        those two points

Instead play x3
E|-----------|
B|-----------|
G|-----------|
D|88-66-44-44|
A|88-66-44-44|
E|66-44-22-22|

Last time play
E|---------------|
B|---------------|
G|------------6-6|
D|88-66-4~~~~-6-6|
A|88-66-4~~~~-4-4|
E|66-44-2~~~~----|

Guitar 2- alot of the same stuff as the rhythm except noted parts

Intro Verse
E|------------------------------------|
B|------------------------------------|
G|6--6--------------------------------|
D|6--6--------------------------------|
A|4--4--------------------------------|
E|------------------------------------|
      I walk these streets every night
E|-----------------------------------------|
B|-----------------------------------------|
G|-----------------------------------6--6--|
D|-----------------------------------6--6--|
A|-----------------------------------4--4--|
E|-----------------------------------------|
  So much I an even tell the traffic lights
E|--------------------------------------------|
B|--------------------------------------------|
G|--------------------------------------------|
D|------------------------------8-6-4---------|
A|------------------------------8-6-4----<<<<<|
E|------------------------------6-4-2----<<<<<|
  Will change on my count of 3: 1,2,1,2,3 Yeah

Intro Lead x2
E|-----4-2-1h2|  |-----2-1----|
B|-2-2--------|  |-2-2-----1h2|
G|------------|x3|------------|
D|------------|  |------------|
A|------------|  |------------|
E|------------|  |------------|
   . .   .         . .   .

Verse
E|-----------------------------------|
B|-----------------------------------|
G|6-6--------------------------------|
D|6-6--------------------------------|
A|4-4--------------------------------|
E|-----------------------------------|
     I walk these streets every night

E|------------------------------------------|
B|------------------------------------------|
G|--------6---------------------------6--6--|
D|--------x---------------------------6--6--|
A|--------4---------------------------4--4--|
E|------------------------------------------|
  So much I can even tell the traffic lights

E|----------------------------------------------------------------|
B|----------------------------------------------------------------|
G|----------------------------------------------------------------|
D|---------------------------------8-8-8-8-6-6-6-6-4-4-4-4--------|
A|---------------------------------8-8-8-8-6-6-6-6-4-4-4-4-4-4-4-4|
E|---------------------------------6-6-6-6-4-4-4-4-2-2-2-2-1-1-1-1|
  Will change on my count of 3...  . . . . . . . . . . . . . . . .

Pre-Chorus Lead x2
E|-----4-2-1h2|  |-----2-1----|  |-----4-2-1h2|
B|-2-2--------|  |-2-2-----1h2|  |-2-2--------|
G|------------|x3|------------|x1|------------|x2
D|------------|  |------------|  |------------|
A|------------|  |------------|  |------------|
E|------------|  |------------|  |------------|
   . .   .         . .   .

Chorus
E|---------------------------------------------------------|
B|---------------------------------------------------------|
G|--------------------------5-6--6-66666-6-5---------------|
D|8--8-888888-6-4--4-444444-5-6--6-66666-6-5-6--6-66666-6^6|
A|8--8-888888-6-4--4-444444-3-4--4-44444-4-3-6--6-66666-6^6|
E|6--6-666666-4-2--2-222222------------------4--4-44444-4^4|

Chorus Part 2
E|------------------------------------------------------------------------------|
B|------------------------------------------------------------------------------|
G|-------------------------------------------5-66-6-66-6-66-6-66-6-66-5---------|
D|88-8-88-8-88-8-88-8-88-6-44-4-44-4-44-4-44-5-66-6-66-6-66-6-66-6-66-5-66666666|
A|88-8-88-8-88-8-88-8-88-6-44-4-44-4-44-4-44-3-44-4-44-4-44-4-44-4-44-3-66666666|
E|66-6-66-6-66-6-66-6-66-4-22-2-22-2-22-2-22----------------------------44444444|

Verse 2
E|-----------------------------------|
B|-----------------------------------|
G|6-6--------------------------------|
D|6-6--------------------------------|
A|4-4--------------------------------|
E|-----------------------------------|

E|------------------------------------------|
B|------------------------------------------|
G|--------6---------------------------6--6--|
D|--------x---------------------------6--6--|
A|--------4---------------------------4--4--|
E|------------------------------------------|


E|----------------------------------------------------------------|
B|----------------------------------------------------------------|
G|----------------------------------------------------------------|
D|---------------------------------8-8-8-8-6-6-6-6-4-4-4-4--------|
A|---------------------------------8-8-8-8-6-6-6-6-4-4-4-4-4-4-4-4|
E|---------------------------------6-6-6-6-4-4-4-4-2-2-2-2-1-1-1-1|
                  Here we go...    . . . . . . . . . . . . . . . .

Pre-Chorus Lead
E|-----4-2-1h2|  |-----2-1----|  |-----4-2-1h2|
B|-2-2--------|  |-2-2-----1h2|  |-2-2--------|
G|------------|x3|------------|x1|------------|x2
D|------------|  |------------|  |------------|
A|------------|  |------------|  |------------|
E|------------|  |------------|  |------------|
   . .   .         . .   .       . .   .

Chorus
E|---------------------------------------------------------|
B|---------------------------------------------------------|
G|--------------------------5-6--6-66666-6-5---------------|
D|8--8-888888-6-4--4-444444-5-6--6-66666-6-5-6--6-66666-6^6|
A|8--8-888888-6-4--4-444444-3-4--4-44444-4-3-6--6-66666-6^6|
E|6--6-666666-4-2--2-222222------------------4--4-44444-4^4|

Chorus Part 2
E|------------------------------------------------------------------------------|
B|------------------------------------------------------------------------------|
G|-------------------------------------------5-66-6-66-6-66-6-66-6-66-5---------|
D|88-8-88-8-88-8-88-8-88-6-44-4-44-4-44-4-44-5-66-6-66-6-66-6-66-6-66-5-66666666|
A|88-8-88-8-88-8-88-8-88-6-44-4-44-4-44-4-44-3-44-4-44-4-44-4-44-4-44-3-66666666|
E|66-6-66-6-66-6-66-6-66-4-22-2-22-2-22-2-22----------------------------44444444|
                                                                        ........
Bridge Part 1
E|---------------------------------------------------------------------|
B|---------------------------------------------------------------------|
G|----------------------------------5/6666-6-66-666\5------------------|
D|8888-8-88-888-8\6-4444-4-44-444-4-5/6666-6-66-666\5-6666-6-66-666-6^6|
A|8888-8-88-888-8\6-4444-4-44-444-4-3/4444-4-44-444\3-6666-6-66-666-6^6|
E|6666-6-66-666-6\4-2222-2-22-222-2-------------------4444-4-44-444-4^4|
  ....   .. ...     ....   .. ...     ....   .. ...   ....   .. ...

Bridge Part 2
E|---------------------------------------------------------------------------------------|
B|---------------------------------------------------------------------------------------|
G|-------------------------------------------5-66-6-66-6-66-6-66-6-66-5------------------|
D|88-8-88-8-88-8-88-8-88-6-44-4-44-4-44-4-44-5-66-6-66-6-66-6-66-6-66-5-66666666666666666|
A|88-8-88-8-88-8-88-8-88-6-44-4-44-4-44-4-44-3-44-4-44-4-44-4-44-4-44-3-66666666666666666|
E|66-6-66-6-66-6-66-6-66-4-22-2-22-2-22-2-22----------------------------44444444444444444|
  ..   ..   ..   ..   ..   ..   ..   ..   ..   ..   ..   ..   ..   ..   ........

Guitar 2
E|------------------------------------------------------|
B|------------------------------------------------------|
G|66-666-666-666-----------------66-666-666-666---------|
D|xx-xxx-xxx-xxx-888-666-444-444-xx-xxx-xxx-xxx-8~-6~-4~|
A|44-444-666-666-xxx-xxx-xxx-xxx-44-444-666-666-8~-6~-4~|
E|---------------666-444-222-222----------------6~-4~-2~|

Pre-Chorus Lead x3
E|-----4-2-1h2|  |-----2-1----|
B|-2-2--------|  |-2-2-----1h2|
G|------------|x3|------------|
D|------------|  |------------|
A|------------|  |------------|
E|------------|  |------------|
   . .   .         . .   .

E|-----4-2-1h2|
B|-2-2--------|
G|------------|
D|------------|x2
A|------------|
E|------------|
   . .   .

E|---2p1|
B|-2----|
G|------|
D|------|x14
A|------|
E|------|

Ending
E|----|
B|----|
G|-6-6|
D|-6-6|
A|-4-4|
E|----|
            
Tabs too difficult? Try these video lessons and learn fast.




comments powered by Disqus
↑ Back to top | Tablatures and chords are parodies/interpretations of the original songs. You may use it for private study, scholarship, research or language learning purposes only