» » »

We The Kings, Heaven Can Wait Tabs (ver.1)

Artists:  A B C D E F G H I J K L M N O P Q R S T U V W X Y Z # 

Heaven Can Wait Tabs (ver.1)

We The Kings Tabs
 Rating:
4.8/5 (19 votes)
Heaven Can Wait lessons Tabs too difficult? Try these video lessons and learn fast
1
                We the Kings


Guitarists: Hunter Thomsen and Travis Clark

Drop D Tuning

Key:

. palm mute
~ ring out
h hammer on

Intro: Lead

E--10---7h8--10--8--7----7h8--10--8--7--10---7h8--10--8--7----8--7--------|
B-----8--------------10--------------------8---------------10------10--8--|
G-------------------------------------------------------------------------|
D-------------------------------------------------------------------------|
A-------------------------------------------------------------------------|
D-------------------------------------------------------------------------|

Intro: Rhythm

E----------------------------------------------------------------|
B----------------------------------------------------------------|
G-----------5-------7-------5---------------5-------7------------|
D---5-------5-(x8)--7-(x8)--5-(x8)--5-------5-(x8)--7-(x16)------|
A---5-(x8)--3-------5-------3-------5-(x8)--3-------5------------|
D---5-------------------------------5----------------------------|

Verse: (Palm Muted) "Here's a song..."

E-------------------------------------------------------------------|
B-------------------------------------------------------------------|
G-------------------------------------------------------------------|
D--------------------------------------------------2-2-2-2-0-0-0-0--|(x3)
A--3-3-3-3-3-3-3-3-5-5-5-5-5-5-5-5-2-2-2-2-2-2-2-2------------------|
D-------------------------------------------------------------------|
   . . . . . . . . . . . . . . . . . . . . . . . . . . . . . . . .

Verse Continued (4th time)

E------------------------------------------------------|
B------------------------------------------------------|
G------------------7~----------------------------------|
D------------------7~----------------------------------|
A--3-3-3-3-3-3-3-3-5~----------------------------------|
D------------------------------------------------------|
   . . . . . . . .

Chorus: "Heaven can wait..."

E-----------------------------------------------------|
B-----------------------------------------------------|
G------------------5-------7--------------------------|
D--5-------2-------5-(x8)--7-(x8)---------------------|(x2)
A--5-(x8)--2-(x8)--3-------5--------------------------|
D--5-------2------------------------------------------|

"Lay your heart..."

E-------------------------------------------------------------|
B-------------------------------------------------------------|
G------------------4-------5-----------------------5-------7--|
D--5-------2-------4-(x8)--5-(x8)--5-------2-------5-(x8)--7--|
A--5-(x8)--2-(x8)--2-------3-------5-(x8)--2-(x8)--3-------5--|
D--5-------2-----------------------5-------2------------------|


(Verse)

(Chorus)

Bridge: Lead

E--10---7h8--10--8--7----7h8--10--8--7--10---7h8--10--8--7----8--7--------|
B-----8--------------10--------------------8---------------10------10--8--|
G-------------------------------------------------------------------------|
D-------------------------------------------------------------------------|
A-------------------------------------------------------------------------|
D-------------------------------------------------------------------------|

Bridge: Rhythm

E----------------------------------------------------------------|
B----------------------------------------------------------------|
G-----------5-------7-------5---------------5-------7------------|
D---5-------5-(x8)--7-(x8)--5-(x8)--5-------5-(x8)--7-(x16)------|
A---5-(x8)--3-------5-------3-------5-(x8)--3-------5------------|
D---5-------------------------------5----------------------------|

Chorus: "Heaven can wait..."

E-----------------------------------------------------|
B-----------------------------------------------------|
G------------------5-------7--------------------------|
D--5-------2-------5-(x8)--7-(x8)---------------------|(x2)
A--5-(x8)--2-(x8)--3-------5--------------------------|
D--5-------2------------------------------------------|

"Lay your heart..."

E------------------------------------------------------------------|
B------------------------------------------------------------------|
G------------------4-------5-----------------------5-------7-------|
D--5-------2-------4-(x8)--5-(x8)--5-------2-------5-(x8)--7-(x8)--|
A--5-(x8)--2-(x8)--2-------3-------5-(x8)--2-(x8)--3-------5-------|
D--5-------2-----------------------5-------2-----------------------|

Outro: Lead

E--10---7h8--10--8--7----7h8--10--8--7--10---7h8--10--8--7----8-----------|
B-----8--------------10--------------------8---------------10-------------|
G-------------------------------------------------------------------------|
D-------------------------------------------------------------------------|
A-------------------------------------------------------------------------|
D-------------------------------------------------------------------------|

Outro: Rhythm

E----------------------------------------------------------------|
B----------------------------------------------------------------|
G-----------5-------7-------5---------------5-------7------------|
D---5-------5-(x8)--7-(x8)--5-(x8)--5-------5-(x8)--7-(x9)-------|
A---5-(x8)--3-------5-------3-------5-(x8)--3-------5------------|
D---5-------------------------------5----------------------------|

"Cuz Heaven Can Wait..."

E----------|
B----------|
G----------|
D---5~~~~~~
A---5~~~~~~
D---5~~~~~~


That is it! Feel free to comment with any questions or anything that I may have missed!
            
Submit corrections

comments powered by Disqus
↑ Back to top | We The Kings Tabs for Heaven Can Wait. Lyrics for acoustic guitar and electric guitar. 1 Tablatures and chords are parodies/interpretations of the original songs. You may use it for private study, scholarship, research or language learning purposes only