» » »

We The Kings, Heaven Can Wait Bass tabs (ver.1)

Artists:  A B C D E F G H I J K L M N O P Q R S T U V W X Y Z # 

Heaven Can Wait Bass tabs (ver.1)

We The Kings Tabs
Rating:
5/5 (1 vote)
Heaven Can Wait lessons Tabs too difficult? Try these video lessons and learn fast
                -----------------------------------------------------------------------------
			     HEAVEN CAN WAIT-We The Kings
-----------------------------------------------------------------------------
and i'l fix it asap (:



Tuning:Drop D

Intro
G|---------------------------------------------------------------------------|
D|---------------------------------------------------------------------------|
A|---------33333333-55555555-33333333---------33333333-55555555-33322200-----|
D|55555555---------------------------55555555--------------------------------|

Verse
G|---------------------------------------------------------------------------|
D|---------------------------22220000-----------------------------22220000---|
A|3-3-3333-5-5-5555-2-2-2222-----------3-3-3333-5-5-5555-2-2-2222------------|
D|---------------------------------------------------------------------------|

G|---------------------------------------------------------------------------|
D|---------------------------22220000----------------------------------------|
A|3-3-3333-5-5-5555-2-2-2222----------3-3-3333-5~----------------------------|
D|---------------------------------------------------------------------------|

Chorus
G|---------------------------------------------------------------------------|
D|---------------------------------------------------------------------------|
A|------------------33333333-55555555-------------------33333333-55555555----|
D|55555555-22222222-------------------55555555-22222222----------------------|

G|---------------------------------------------------------------------------|
D|---------------------------------------------------------------------------|
A|------------------22222222-33333333-------------------33333333-5~----------|
D|55555555-22222222-------------------55555555-22222222----------------------|

Verse
G|---------------------------------------------------------------------------|
D|---------------------------22220000-----------------------------22220000---|
A|3-3-3333-5-5-5555-2-2-2222-----------3-3-3333-5-5-5555-2-2-2222------------|
D|---------------------------------------------------------------------------|

G|---------------------------------------------------------------------------|
D|---------------------------22220000----------------------------------------|
A|3-3-3333-5-5-5555-2-2-2222----------3-3-3333-5~----------------------------|
D|---------------------------------------------------------------------------|

Chorus
G|---------------------------------------------------------------------------|
D|---------------------------------------------------------------------------|
A|------------------33333333-55555555-------------------33333333-55555555----|
D|55555555-22222222-------------------55555555-22222222----------------------|

G|---------------------------------------------------------------------------|
D|---------------------------------------------------------------------------|
A|------------------22222222-33333333-------------------33333333-5~----------|
D|55555555-22222222-------------------55555555-22222222----------------------|

Intro
G|---------------------------------------------------------------------------|
D|---------------------------------------------------------------------------|
A|---------33333333-55555555-33333333---------33333333-55555555-33322200-----|
D|55555555---------------------------55555555--------------------------------|

Breakdown[thing]
G|---------------------------------------------------------------------------|
D|---------------------------------------------------------------------------|
A|-----------3~--------------------------------------------------------------|
D|5~----0~--------5674~----5~-----4~-----------------------------------------|

Chorus
G|---------------------------------------------------------------------------|
D|---------------------------------------------------------------------------|
A|------------------33333333-55555555-------------------33333333-55555555----|
D|55555555-22222222-------------------55555555-22222222----------------------|

G|---------------------------------------------------------------------------|
D|---------------------------------------------------------------------------|
A|------------------22222222-33333333-------------------33333333-5~----------|
D|55555555-22222222-------------------55555555-22222222----------------------|

Intro/Outro
G|---------------------------------------------------------------------------|
D|---------------------------------------------------------------------------|
A|---------33333333-55555555-33333333---------33333333-55555555-3------------|
D|55555555---------------------------55555555--------------------------------|

| /  slide up
| \  slide down
| h  hammer-on
| p  pull-off
| ~  vibrato
| +  harmonic
| x  Mute note
=============================================================================
            

comments powered by Disqus
↑ Back to top | We The Kings Bass for Heaven Can Wait. Lyrics for acoustic guitar and electric guitar. Tablatures and chords are parodies/interpretations of the original songs. You may use it for private study, scholarship, research or language learning purposes only