» » »

We The Kings, Skyway Avenue Tabs (ver.1)

Artists:  A B C D E F G H I J K L M N O P Q R S T U V W X Y Z # 

Skyway Avenue Tabs (ver.1)

We The Kings Tabs
 Rating:
4/5 (4 votes)
Skyway Avenue lessons Tabs too difficult? Try these video lessons and learn fast
1
                Drop D Tuning.

this is an amazing song of their album out now.
have fun.

* = Palm Mute
~ = Ring
/ = Slide up neck
\ = Slide down neck

Guitar 1

Intro: 
E||-------------------|-------------------|(x2)
B||-----7-7--7-7-666--|-------------------|
G||-------------------|--------6(x16)-----|
D||-4-4-4-4-4-4-------|-4(x16)-6----------|
A||-------------------|-4------4----------|
D||-------------------|-4-----------------|
    * *   * * *

Verse:
E||-------------------|-------------------|(x2)
B||-------------------|-------------------|
G||-4-4-----4---4-444-|-------------------|
D||-4-4-4-4-4-4-4-444-|-4-4-----4---4-444-|
A||-2-2-2-2-2-2-2-222-|-4-4-4-4-4-4-4-444-|
D||-------------------|-4-4-4-4-4-4-4-444-|
        * *   *             * *   *

Prechorus:
E||-------------------|-------------------|
B||-------------------|-------------------|
G||-8~-----6~---------|-4~-----6~---------|
D||-8~-----6~---------|-4~-----6~---------|
A||-6~-----4~---------|-2~-----4~---------|
D||-------------------|-------------------|

E||-------------------|-------------------|
B||-------------------|-------------------|
G||-8~-----6~---------|-4(x7)-6-----------|
D||-8~-----6~---------|-4-----6-----------|
A||-6~-----4~---------|-2-----4-----------|
D||-------------------|-------------------|

Chorus:
E||---------------------------------------|(x2)
B||---------------------------------------|
G||-------6(x8)-------4(x8)---------------|
D||-4(x8)-6-----1(x8)-4-------------------|
A||-4-----4-----1-----2-------------------|
D||-4-----------1-------------------------|

E||-------------------|-------------------|
B||-------------------|-------------------|
G||---------666---6---|---------444-4444--|
D||-444---4-666---6---|-111---1-444-4444--|
A||-444---4-444---4---|-111---1-222-2222--|
D||-444---4-----------|-111---1-----------|

E||-------------------|
B||-------------------|
G||-------------------|
D||-6(x16)-9(x8)-11---|
A||-6------9-----11---|
D||-6------9-----11---|(11's not 1's)

Repeat Verse:

Repeat Prechorus:

Repeat Chorus:

Bridge:
E||---------------------------------------|(x2)----------|
B||---------------------------------------|--------------|
G||--------4(x16)--------6(x16)-----------|--------------|
D||-1(x16)-4------4(x16)-6----------------|--------------|
A||-1------2------4------4----------------|--------------|
D||-1-------------4-----------------------|--------------|

Repeat Chorus:

Outro:
E||-------------------|
B||-------------------|
G||-6~----------------|
D||-6~-----4~---------|
A||-4~-----4~---------|
D||--------4~---------|


Guitar 2:

Intro: (x2)
E||-------------------|---------------------------------------------------------|
B||-------------------|-11-12-11----------------------11-12-11------------------|
G||-------------------|----------13-13-11-10-13-10-11----------13-13-11-10-11-10|
D||-------------------|---------------------------------------------------------|
A||-------------------|---------------------------------------------------------|
D||-------------------|---------------------------------------------------------|

Verse:

E||-------------------|-------------------|(x2)
B||---------------222-|-------------------|
G||-4-4-----4---4-333-|---------4-----444-|
D||-4-4-4-4-4-4-4-444-|-4-4-----6---8-444-|
A||-2-2-2-2-2-2-2-----|-4-4-4-4-4-4-4-444-|
D||-------------------|-4-4-4-4-4-4-4-444-|
        * *   *             * *   *

Prechorus (Same as Guitar 1):

Chorus: (play twice and then break for rhythm guitar and then come back in)
E||-------------------|-------------------------------|(x2)(fast)
B||-11-12-11---11-----|-14-----14-----14--------------|
G||----------13--13-11|---13-11--13-11--13-11-10/11---|
D||-------------------|-------------------------------|
A||-------------------|-------------------------------|
D||-------------------|-------------------------------|

Transition to Verse:
E||-------------------|
B||--13//////////////-|
G||--14//////////////-|
D||-------------------|
A||-------------------|
D||-------------------|

Repeat Verse Gt.2:

Repeat Prechorus Gt.2:

Repeat Chorus Gt.2:

Bridge:
E||-------------------|---------------------------------------------------------|
B||-------------------|-11-12-11----------------------11-12-11------------------|
G||-------------------|----------13-13-11-10-13-10-11---------13-13-10-11~------|
D||-------------------|---------------------------------------------------------|
A||-------------------|---------------------------------------------------------|
D||-------------------|---------------------------------------------------------|

Repeat Chorus Gt.2:
            
Submit corrections

comments powered by Disqus
↑ Back to top | We The Kings Tabs for Skyway Avenue. Lyrics for acoustic guitar and electric guitar. 1 Tablatures and chords are parodies/interpretations of the original songs. You may use it for private study, scholarship, research or language learning purposes only