>
 >
West Coast Blues 1

West Coast Blues 1 Guitar Tabs

Wes Montgomery - West Coast Blues 1 chords, tabs, tablatures, lyrics

Guitar lessons | Add/correct | Request | Top 50 tabs Artists:  A B C D E F G H I J K L M N O P Q R S T U V W X Y Z 0-9

West Coast Blues 1 Guitar Tabs – Wes Montgomery

CD, Sheet music, Poster

Do you like West Coast Blues 1? Share with your friends now
TabsTabs v2
West Coast Blues - Wes Montgomery
Lead Guitar

(as been played on the album "Movin'Wes")



      Bb             Abm          Db7     Gb7M        Gbm          B7      
E||------------------------------------|---------------------------------||
B||---6--6--6--6--6--7----4----7--6----|------6-------5---------5--4-----||
G||*-----------------------------------|---------6---------6------------*||
D||*-----------------------------------|--------------------------------*||
A||------------------------------------|---------------------------------||
E||------------------------------------|---------------------------------||


   Bb                                  
---1----1-----------------------------|
---3----3-----------------------------|
*------------3-----1----3----------1--|
*---------------3------------1--3-----|
--------------------------------------|
--------------------------------------|


  Ab7                                   Bb                              
-------------------------------------|--1----1-------------------------|
--4----4-----------------------------|--3----3-------------------------|
--5----5-----------------------0--3--|------------3-----1----3------6--|
------------6-----4----6----3--------|---------------3-----------------|
---------------6---------------------|---------------------------------|
-------------------------------------|---------------------------------|


  Bm7              E7                  Eb7                                 
------------------------------------|--1----1-----------------------------|
-----7------------------------------|--2----2-----------------------------|
--9-----9--7----------6-------------|------------3-----1----3-------0--3--|
---------------------------7--9--7--|---------------3------------1--------|
----------------9--7----------------|-------------------------------------|
------------------------------------|-------------------------------------|


                                       
--1----1------------------------------|
--2----2------------------------------|
------------3-----1----3--------0--3--|
---------------3----------1--3--------|
--------------------------------------|
--------------------------------------|


  Bb7                                                                   
--1----1-----------------------------|--1----1-------------------------|
--3----3-----------------------------|--3----3----------------------3--|
------------3-----1----3-------0--1--|------------3-----1----3---------|
---------------3------------1--------|---------------3-----------------|
-------------------------------------|---------------------------------|
-------------------------------------|---------------------------------|


  F7                                    Eb7                                 
--1--2--1----------------------------|-----1-------------------------------|
-----------4-------------3--1--------|--4-----4--2-------------1-----------|
-------------------0--3--------1-----|----------------------1-----3--0-----|
----------------3-----------------3--|----------------1--3--------------1--|
-------------------------------------|-------------------------------------|
-------------------------------------|-------------------------------------|


  Bb7                                                                    
--1----1------------------------------|--1----1------------------------||
--3----3------------------------------|--3----3------------------------||
------------3-----1----3--------0--1--|------------3-----1~-----------*||
---------------3----------2--3--------|---------------3---------------*||
--------------------------------------|--------------------------------||
--------------------------------------|--------------------------------||


                                     Bb             Abm          Db7   
--1----1------------------------||------------------------------------|
--3----3------------------------||---6--6--6--6--6--7----4----7--6----|
------------3-----1/---3/-------||*-----------------------------------|
---------------3----------------||*-----------------------------------|
--------------------------------||------------------------------------|
--------------------------------||------------------------------------|


  Gb7M        Gbm          B7        Gb7M        Gbm          B7      
---------------------------------||------------------------------11--|
------6-------5---------5--4-----||------6-------5---------5--4------|
---------6---------6------------*||---------6---------6----------8---|
--------------------------------*||----------------------------------|
---------------------------------||----------------------------------|
---------------------------------||----------------------------------|


  Bb7                                      
--10--------------------------------------|
------11--11--11--11----11----11----11----|
--7---------------------------------------|
------8---8---8---8-----8-----8-----8-----|
------------------------------------------|
------------------------------------------|


  Ab7                                        
--------------------------------11----13----|
--11----11----11----11----11----------------|
--------------------------------8-----10----|
--8-----8-----8-----8-----8-----------------|
--------------------------------------------|
--------------------------------------------|


  Bb7                                      
--10--------------------------------------|
------11--11----11----11----11----11/-10--|
--7---------------------------------------|
------8---8-----8-----8-----8-----8/--7---|
------------------------------------------|
------------------------------------------|


  Bm7                  E7                   
-------------------------------------------|
--9--------------10/---9--------------9----|
-------9----7---------------9----7---------|
--6--------------7/----6--------------6----|
-------7----5---------------7----5---------|
-------------------------------------------|


  Eb7                                
------------------------------------|
--8--------------------------8--11--|
-------8----6-----------------------|
--5--------------------------5--8---|
-------6----4-----------------------|
------------------------------------|


  Ebm7                   Ab7                    
--9--11--13--16--13--11--9-----------------11--|
----------------------------11-----------------|
--6--8---10--13--10--8---6------11--9--10--8---|
----------------------------8------------------|
--------------------------------9---7--8-------|
-----------------------------------------------|


  Dm7                    G7                        
--12-----------------12--12-------------------11--|
-------------------------------13--10-------------|
--9---------------9--9---9-------------10--9--8---|
--------10--7------------------10--7--------------|
---------------8--7--------------------8---7------|
--------------------------------------------------|


  Dbm7                  Gb7                     
--11----------------11--11-----------------10--|
------------------------------12--9------------|
--8--------------8--8---8------------9--8--7---|
--------9--6------------------9---6------------|
--------------7--6-------------------7--6------|
-----------------------------------------------|


  Cm7                    G7                   
--10-----------------10----------------------|
--------11--8------------12--9---------------|
--7------------8--7--7----------10--6--4-----|
--------8---5------------9---6------------5--|
---------------6--5-------------8---4--2-----|
------------------------------------------3--|


  Cm7                 F7                     
------------------10--11--10--9-------------|
-----------8--11-----------------10---------|
--5--7--8---------7---8---7---6------11--9--|
-----------5--8------------------7----------|
--3--5--6----------------------------9---7--|
--------------------------------------------|


  Bb7                Db9               B7M             B7              
-----11--10--8--6------9------6-----|---------------------------------|
---------------------------------6--|--9--6--9--6--------9----7--6----|
--8--8---7---5--3------6------3-----|---------------------------------|
---------------------------------3--|--6--3--6--3--------6----4--3----|
--6---------------------------------|---------------------------------|
------------------------------------|---------------------------------|


  Bb6     Bb13   Ab13 Ab6  Bb7       Ab6    Ab13 Ebm  Gb6  Ab7   
--10------6------4----8---------|----8------4----3----6---------|
--8-------8------6----6----6----|----6------6----4----4----4----|
--10------7------5----8----7----|----8------5----3----6----5----|
--8-------6------4----6----6----|----6------4----5----4----4----|
--------------------------------|-------------------------------|
--------------------------------|-------------------------------|


  Bb6     Bb13   Ab13 Ab6  Bb7   
--10------6------4----8---------|
--8-------8------6----6----6----|
--10------7------5----8----7----|
--8-------6------4----6----6----|
--------------------------------|
--------------------------------|


    D6  Bm7 Dbm7D6  Bm7 Dbm  Bm   D    DbmBm7 
----14--10--12--14--10--9----7----5----4--2--|
----12--10--12--12--10--8----7----7----5--3--|
----14--9---13--14--9---9----7----7----4--2--|
----12--9---11--12--9------------------------|
---------------------------------------------|
---------------------------------------------|


  Bbm7           Eb9        Ebm9              Ab13         Ebm9
--1------1--1----6/------------|------------------------------|
--2------2--2----6/---------6--|--6/---6------6/-----------6/-|
--1------1--1----6/---------6--|--6/---6------5/-----------6/-|
-----------------5/---------4--|--4/---4------4/-----------4/-|
-----------------6/---------6--|--6/---6-------------------6/-|
-------------------------------|------------------------------|


  Dm9Db9Dm9    G13  Em7     G9      DbmC9 Dbm9   Gb13 Ebm7    Gb9   
--------------------12------5----|--------------------11------4----|
--5--4--5------5----12------3----|--4--3--4------4----11------2----|
--5--4--5------4----12------4----|--4--3--4------3----11------3----|
--3--3--3------3------------3----|--2--2--2------2------------2----|
--5--4--5------------------------|--4--3--4------------------------|
---------------------------------|---------------------------------|


  Cm9                                  Cm7                                
------------------------------------|--3------3--3-----------------------|
--3------3--3-----------------------|--4------4--4-----------------------|
--3------3--3-------4-----7-----10--|--3------3--3-------5-----8-----11--|
--1------1--1-----------------------|--5------5--5-----------------------|
--3------3--3----2-----5-----8------|--3------3--3----3-----6-----9------|
------------------------------------|------------------------------------|


  Bb        A  Bb Db13    Db9-       Gb7M            B13    B7      
------------------11------10------|--9-----------------------------|
--6------6--5--6--11------9-------|--11------11------9------7------|
--7------7--6--7--10------10------|--10------10------8------8------|
--8------8--7--8--9-------9-------|--11------11------7------7------|
----------------------------------|--9-------9---------------------|
----------------------------------|------------------7------7------|


  Bb                                    Ab7                                 
--1----1-----------------------------|-------------------------------------|
--3----3-----------------------------|--4----4-----------------------------|
------------3-----1----3----------1--|--5----5-----------------------0--3--|
---------------3------------1--3-----|------------6-----4----6----3--------|
-------------------------------------|---------------6---------------------|
-------------------------------------|-------------------------------------|


  Bb                                Bm7              E7                
--1----1-------------------------|------------------------------------|
--3----3-------------------------|-----7------------------------------|
------------3-----1----3------6--|--9-----9--7----------6-------------|
---------------3-----------------|---------------------------7--9--7--|
---------------------------------|----------------9--7----------------|
---------------------------------|------------------------------------|


  Eb7                                 
--1----1-----------------------------|
--2----2-----------------------------|
------------3-----1----3-------0--3--|
---------------3------------1--------|
-------------------------------------|
-------------------------------------|


                                       
--1----1------------------------------|
--2----2------------------------------|
------------3-----1----3--------0--3--|
---------------3----------1--3--------|
--------------------------------------|
--------------------------------------|


  Bb7                                                                   
--1----1-----------------------------|--1----1-------------------------|
--3----3-----------------------------|--3----3----------------------3--|
------------3-----1----3-------0--1--|------------3-----1----3---------|
---------------3------------1--------|---------------3-----------------|
-------------------------------------|---------------------------------|
-------------------------------------|---------------------------------|


  F7                                    Eb7                                 
--1--2--1----------------------------|-----1-------------------------------|
-----------4-------------3--1--------|--4-----4--2-------------1-----------|
-------------------0--3--------1-----|----------------------1-----3--0-----|
----------------3-----------------3--|----------------1--3--------------1--|
-------------------------------------|-------------------------------------|
-------------------------------------|-------------------------------------|


  Bb7                                                                   
--1----1------------------------------|--1----1------------------------|
--3----3------------------------------|--3----3------------------------|
------------3-----1----3--------0--1--|------------3-----1/---3/-------|
---------------3----------2--3--------|---------------3----------------|
--------------------------------------|--------------------------------|
--------------------------------------|--------------------------------|


    Bb             Abm          Db7     Gb7M        Gbm          B7      
|------------------------------------|---------------------------------||
|---6--6--6--6--6--7----4----7--6----|------6-------5---------5--4-----||
|*-----------------------------------|---------6---------6------------*||
|*-----------------------------------|--------------------------------*||
|------------------------------------|---------------------------------||
|------------------------------------|---------------------------------||


  Bb11           
--0------------||
--1------------||
--0------------||
--0------------||
--1------------||
--1------------||





Comments


Popular Wes Montgomery tabs & chords
Four On Six Chords
Boss City Tabs
Far Wes Tabs
Four On Six Tabs
Mr Walker Tabs
Naptown Blues Tabs
While We Are Young Tabs
Far Wes Ukulele
Four On Six Ukulele
One For My Baby Ukulele


Song lyrics



↑ Back to top | Tablatures and chords are parodies/interpretations of the original songs. You may use it for private study, scholarship, research or language learning purposes only
© 2014 AZChords.com Contact us | Privacy policy | DMCA | Add/correct tabs | Request tabs | Top 50 tabs