>
 >
Bumpin Intro

Bumpin Intro Guitar Tabs

Wes Montgomery - Bumpin Intro chords, tabs, tablatures, lyrics

Guitar lessons | Add/correct | Request | Top 50 tabs Artists:  A B C D E F G H I J K L M N O P Q R S T U V W X Y Z 0-9

Bumpin Intro Guitar Tabs – Wes Montgomery

CD, Sheet music, Poster

Do you like Bumpin Intro? Share with your friends now
Tabs
Band: Wes Montgomery




Intro

e---------------------------------------------------------------------|
B---------11----------------11-9-11/13-------------11-----------------|
G--/10-13----13-10-13-----------------------/10-13----13-10-13--------|
D---------------------------------------------------------------------|
A---------------------------------------------------------------------|
E---------------------------------------------------------------------|

e--------------------------------------11-----------------------------|
B--------------------------------11-13----13----11-------11/13--------|
G--7/10-8----8/10---------/10-13-------------------10-8---------------|
D---------10----------------------------------------------------------|
A---------------------------------------------------------------------|
E---------------------------------------------------------------------|

e---------------------------------------------------------------------|
B---------11--------------11-9-11/13------------11-11h12p11-----------|
G--/10-13----13-10-13--------------------/10-13-------------13--------|
D---------------------------------------------------------------------|
A---------------------------------------------------------------------|
E---------------------------------------------------------------------|

e-----------------------11--------------------------------------------|
B---------11-11------13----11h12p11----------11----------11-9---------|
G--/10-13---------------------------13-10-13-------13-10------10-8-10-|
D---------------------------------------------------------------------|
A---------------------------------------------------------------------|
E---------------------------------------------------------------------|

Violin/s Come in 0:55

e---------------------------------------------------------------------|
B---------11-------------11-9-11/13-------------11--------------------|
G--/10-13----13-10-13--------------------/10-13----13-10-13-----------|
D---------------------------------------------------------------------|
A---------------------------------------------------------------------|
E---------------------------------------------------------------------|

e---------------------------------------------------------------------|
B---------11h12p11----------------------11-12/13----13----------------|
G--10-13-----------13-10-13------/10-13----------13-------------------|
D---------------------------------------------------------------------|
A---------------------------------------------------------------------|
E---------------------------------------------------------------------|

e---------------------------------------------------------------------|
B-----------11/13-------------11------------------11----11-13---------|
G---13-10-8------------/10-13----13-10-13------13----13-------10------|
D---------------------------------------------------------------------|
A---------------------------------------------------------------------|
E---------------------------------------------------------------------|

e---------------------------------------------------------------------|
B---------11h12p11----------------------------------------------------|
G--/10-13----------13-10-13------10-13-10-8---------------------------|
D-------------------------------------------10------------------------|
A---------------------------------------------------------------------|
E---------------------------------------------------------------------|

e---------------------------------------------------------------------|
B---------11--------------------11h13p11------------------------------|
G--/10-13----13-10-13-----10-13-----------8-10------------------------|
D---------------------------------------------------------------------|
A---------------------------------------------------------------------|
E---------------------------------------------------------------------|

Octaves part 1:34

e---------11----------------------------------------------------------|
B--11/13-----11/13----------------------------------11/13-------------|
G---------8----------8-10---8/10-8/10-8/10---13-10--------------------|
D--8/-10-----8/-10----------------------------------8/-10-------------|
A--------------------6--8---6/8--6/8--6/8----10-8---------------------|
E---------------------------------------------------------------------|

e---11-13-------------------------------------------------------------|
B----------11/13---------------------11-------------------------------|
G---8--10---------8/10-8/10-8/10--13----13--10------------------------|
D----------8-/10---------------------8--------------------------------|
A-----------------6/8--6/8--6/8---11----11--8-------------------------|
E---------------------------------------------------------------------|

e---------------------------------------------------------------------|
B---------------------11-13-16-11-13-16-11-13-16-18-16-13-11-9-6-9----|
G--10-13-15-10-13-15--------------------------------------------------|
D---------------------8--10-13-8--10-13-8--10-13-15-13-10-13-6-3-6----|
A--8--11-13-8--11-13--------------------------------------------------|
E---------------------------------------------------------------------|

e--13-11-----------------------------------------------11-14----------|
B--------13-11-9-6-9----6-9-11-9-11-9/13------------13----------------|
G--10-8---------------------------------------10-13----8--11----------|
D--------10-8--6-3-6----3-6-8--6-8--6/10------------10----------------|
A---------------------------------------------8--11-------------------|
E---------------------------------------------------------------------|

e-----------------------13-16-13-11-----------------------------------|
B--14----------10/13----------------13-9-6-9-----11-9-----------------|
G-----13-10--8----------10-13-10-8---------------------13-10-----10---|
D--11-----------8/10----------------10-6-3-6-----8--6-----------------|
A-----11-8---6-----------------------------------------11--8-----8----|
E---------------------------------------------------------------------|

e---------------------------------------------------------------------|
B---------------------------------------------------------------------|
G--10-13-13/17--13-10----10-13-13/15-13-10---10-13-13/17-20-17--------|
D---------------------------------------------------------------------|
A--8--11-11/15--11-8-----8--11-11/13-11-8----8--11-11/15-18-15--------|
E---------------------------------------------------------------------|

e---------------------------------------------------------------------|
B---------------------------------------------------------------------|
G--10-13-13/15-13-10-----10-13-13/17--13-10---10-13-13/15-13-10-------|
D---------------------------------------------------------------------|
A--8--11-11/13-11-8------8--11-11/15--11-8----8--11-11/13-11-8--------|
E---------------------------------------------------------------------|

e------------------------------------------9-11-13-16-13---6-9-13-9-11-|
B----------------------------------------------------------------------|
G--10-13-13/17-20-17----15-13-15--13-10----6-8--10-13-10---3-6-10-6-8--|
D----------------------------------------------------------------------|
A--8--11-11/15-18-15----13-11-13--11-8---------------------------------|
E----------------------------------------------------------------------|

e--9-11-13-16-13---6-9-11-9-13-----------------------------------------|
B------------------------------13--------------------------------------|
G--6-8--10-13-10---3-6-8--6-10----10-13-13/17-20-17--10-13-13/15-13-10-|
D------------------------------10--------------------------------------|
A---------------------------------8--11-11/15-18-15--8--11-11/13-11-8--|
E----------------------------------------------------------------------|

e-------------------------------------------11------------------------|
B----------------------------------------------11h12p11---------------|
G--10-13-13/17-20-17----10-13-13/15-13-10----------------8/10---------|
D---------------------------------------------------------------------|
A--8--11-11/15-18-15----8--11-11/13-11-8-----------------6/8----------|
E---------------------------------------------------------------------|

e------------------------------------------------13-11----------------|
B--------------11-----------------11/14-11/14----------11h12----------|
G--10-13-13-10----10-13-9t10----13---------------------------13-10----|
D---------------------------------------------------------------------|
A---------------------------------------------------------------------|
E---------------------------------------------------------------------|

e---------------------------------------------------------------------|
B--11/13-------11/13-11-------11--------------------------------------|
G--------13-10----------10-13----10-13--9t10------10-13-15-13-10-8-10-|
D---------------------------------------------------------------------|
A---------------------------------------------------------------------|
E---------------------------------------------------------------------|

End of Octave 1st Part 2:55

My first Jazz tab comments or corrections/feedback contact me please rate





Comments


Popular Wes Montgomery tabs & chords
Angel Tabs
Bumpin Tabs
Bumpin 1 Tabs
Misty Tabs
Movin Wes Part 2 Tabs
Mr Walker Tabs
Naptown Blues Tabs
Sues Waltz Tabs
While We Are Young Tabs
Four On Six Ukulele


Song lyrics



↑ Back to top | Tablatures and chords are parodies/interpretations of the original songs. You may use it for private study, scholarship, research or language learning purposes only
© 2014 AZChords.com Contact us | Privacy policy | DMCA | Add/correct tabs | Request tabs | Top 50 tabs