>
 >
The Angel And The One

The Angel And The One Guitar Tabs

Weezer - The Angel And The One chords, tabs, tablatures, lyrics

Guitar lessons | Add/correct | Request | Top 50 tabs Artists:  A B C D E F G H I J K L M N O P Q R S T U V W X Y Z 0-9

The Angel And The One Guitar Tabs – Weezer

CD, Sheet music, Poster

Do you like The Angel And The One? Share with your friends now
ChordsChords v2TabsTabs v2Ukulele
-----------------------------------------------------------------------
                             The Angel and the One- Weezer
-----------------------------------------------------------------------

Tuning: Guitar 1: Standard, half step down
        Guitar 2: Standard, half step down

Key
/  slide up
\  slide down
h  hammer-on
p  pull-off
~  sustain
b  bend
r  release

Guitar 1 (Clean or lightly distorted)
eb|-----------------------------------------------------------|
Bb|-----------------------------------------------------------|
Gb|--------------------2--------2--------2--------------------| 
Db|--3--------3--------0--------0--------3--------3--3-----3--|    
Ab|--3--------3--------0--------3--------1--------1--0--5--0--|
Eb|--1--------0-----------------------------------------3-----|

eb|-----------------------------------------------------------|
Bb|-----------------------------------------------------------|
Gb|--------------------2--------2--------2--------------------| 
Db|--3--------3--------0--------0--------3--------3--3-----3--|    
Ab|--3--------3--------0--------3--------1--------1--0--5--0--|
Eb|--1--------0-----------------------------------------3-----|

eb|-----------------------------------------------------------|
Bb|-----------------------------------------------------------|
Gb|--------------------2--------2--------2--------------------| 
Db|--3--------3--------0--------0--------3--------3--3-----3--|    
Ab|--3--------3--------0--------3--------1--------1--0--5--0--|
Eb|--1--------0-----------------------------------------3-----|

eb|-----------------------------------------------------------|
Bb|-----------------------------------------------------------|
Gb|--------------------2--------2--------2--------------------| 
Db|--3--------3--------0--------0--------3--------3--3-----3--|    
Ab|--3--------3--------0--------3--------1--------1--0--5--0--|
Eb|--1--------0-----------------------------------------3-----|
This part is repeated clean up until 2:20. 

1:49
Guitar 2 (Lightly Distorted)
eb|--------------------------------------------------------------|
Bb|--------------------------------------------------------------|
Gb|--14-14--14-14-14--14--14--14-14-14--14--14-14-14--14--14-----| 
Db|--15-15--15-15-15--15--15--15-15-15--15--15-15-15--15--15-----|    
Ab|--------------------------------------------------------------|
Eb|--------------------------------------------------------------|

eb|--------------------------------------------------------------|
Bb|--------------------------------------------------------------|
Gb|--14--14-14-14--14--14--14-14--17--17--17-17--17-17--17-17----| 
Db|--15--15-15-15--15--15--15-15--15--15--15-15--15-15--15-15----|    
Ab|--------------------------------------------------------------|
Eb|--------------------------------------------------------------|

eb|--------------------------------------------------------------|
Bb|--------------------------------------------------------------|
Gb|--14--14--14--14--14-14--14-14--14--14-14-14--14--14--14-14---| 
Db|--15--15--15--15--15-15--15-15--15--15-15-15--15--15--15-15---|    
Ab|--------------------------------------------------------------|
Eb|--------------------------------------------------------------|
(2:14)
eb|--------------------------------------------------------------|
Bb|--------------------------------------------------------------|
Gb|--17--17--17-17-14--14-14--14--14-14-14-14--14-17--17--17-17--| 
Db|--15--15--15-15-15--15-15--15--15-15-15-15--15-15--15--15-15--|    
Ab|--------------------------------------------------------------|
Eb|--------------------------------------------------------------|

eb|--------------------------------------------------------------|
Bb|--------------------------------------------------------------|
Gb|--14--14------------------------------------------------------| 
Db|--15--15------------------------------------------------------|    
Ab|--------------------------------------------------------------|
Eb|--------------------------------------------------------------|

(2:20)
Guitar 1 (Distorted)
eb|------------------------------------------------------------------|
Bb|------------------------------------------------------------------|
Gb|------------------------------------------------------------------| 
Db|--10--10----10--10----7--7----5--5----8--8---------8----8--8------|    
Ab|---8---8-----7---7----5--5----3--3----8--8---------8----8--8------|
Eb|---8---8-----7---7----5--5----3--3----6--6---------6----6--6------|
**********************************************************************
eb|------------------------------------------------------------------|
Bb|------------------------------------------------------------------|
Gb|-------------------------------------------17-17-17--14-14-14-14--| 
Db|-------------------------------------------15-15-15--15-15-15-15--|    
Ab|------------------------------------------------------------------|
Eb|------------------------------------------------------------------|

eb|------------------------------------------------------------------|
Bb|------------------------------------------------------------------|
Gb|------------17-17-17-17--14--14--12-14-12-------------------------| 
Db|--12--12----15-15-15-15--15--15-----------------------------------|    
Ab|------------------------------------------------------------------|
Eb|------------------------------------------------------------------|

eb|------------------------------------------------------------------|
Bb|------------------------------------------------------------------|
Gb|------------------------------------------------------------------| 
Db|--10--10----10--10----7--7----5--5----8--8---------8----8--8------|    
Ab|---8---8-----7---7----5--5----3--3----8--8---------8----8--8------|
Eb|---8---8-----7---7----5--5----3--3----6--6---------6----6--6------|
**********************************************************************
eb|------------------------------------------------------------------|
Bb|------------------------------------------------------------------|
Gb|-------------------------------------------17-17-17--14-14-14-14--| 
Db|-------------------------------------------15-15-15--15-15-15-15--|    
Ab|------------------------------------------------------------------|
Eb|------------------------------------------------------------------|

eb|------------------------------------------------------------------|
Bb|------------------------------------------------------------------|
Gb|------------17-17-17-17--14--14--12-14-12-------------------------| 
Db|--12--12----15-15-15-15--15--15-----------------------------------|    
Ab|------------------------------------------------------------------|
Eb|------------------------------------------------------------------|

Guitar 1 & Guitar 2
eb|----------------------------------------------------------------|
Bb|----------------------------------------------------------------|
Gb|----------------------------------------------------------------| 
Db|--10--10----10--10----7--7----5--5----8~----8----7----5----7----|    
Ab|---8---8-----7---7----5--5----3--3----8~----8----7----5----7----|
Eb|---8---8-----7---7----5--5----3--3----6~----6----5----3----5----|

eb|----------------------------------------------------------------|
Bb|----------------------------------------------------------------|
Gb|----------------------------------------------------------------| 
Db|--10--10----10--10----7--7----5--5----8~----8----7----5----7-5b-|    
Ab|---8---8-----7---7----5--5----3--3----8~----8----7----5----7----|
Eb|---8---8-----7---7----5--5----3--3----6~----6----5----3----5----|

eb|----------------------------------------------------------------|
Bb|----------------------------------------------------------------|
Gb|----------------------------------------------------------------| 
Db|--10--10----10--10----7--7----5--5----8~----8----7----5----7----|    
Ab|---8---8-----7---7----5--5----3--3----8~----8----7----5----7----|
Eb|---8---8-----7---7----5--5----3--3----6~----6----5----3----5----|

eb|----------------------------------------------------------------|
Bb|----------------------------------------------------------------|
Gb|----------------------------------------------------------------| 
Db|--10--10----10--10----7--7----5--5----8-8-8-8-8--8-8-8-8-8------|    
Ab|---8---8-----7---7----5--5----3--3----8-8-8-8-8--8-8-8-8-8------|
Eb|---8---8-----7---7----5--5----3--3----6-6-6-6-6--6-6-6-6-6------|

eb|--------------------|
Bb|--------------------|
Gb|--------------------| 
Db|--8----7----5----7--|    
Ab|--8----7----5----7--|
Eb|--6----5----3----5--|

(3:55)
eb|----------------------------------------------------------------|
Bb|----------------------------------------------------------------|
Gb|----------------------------------------------------------------| 
Db|--10--10----10--10----7--7----5--5----8-8-8-8-8--8-8-8-8-8------|    
Ab|---8---8-----7---7----5--5----3--3----8-8-8-8-8--8-8-8-8-8------|
Eb|---8---8-----7---7----5--5----3--3----6-6-6-6-6--6-6-6-6-6------|
********************************************************************
eb|--20-------------22\-20--20--18-17---17-15--13-15---------------|
Bb|---x--------------x---x---x---x--x----x--x---x--x---------------|
Gb|--17-------------19\-17--17--15-14---14-12--10-12---------------| 
Db|----------------------------------------------------------------|    
Ab|----------------------------------------------------------------|
Eb|----------------------------------------------------------------|

eb|--------------------|
Bb|--------------------|
Gb|--------------------| 
Db|--8----7----5----7--|    
Ab|--8----7----5----7--|
Eb|--6----5----3----5--|
************************
eb|--17-15--13-15------|
Bb|---x--x---x--x------|
Gb|--14-12--10-12------| 
Db|--------------------|    
Ab|--------------------|
Eb|--------------------|

eb|----------------------------------------------------------------|
Bb|----------------------------------------------------------------|
Gb|----------------------------------------------------------------| 
Db|--10--10----10--10----7--7----5--5----8-8-8-8-8--8-8-8-8-8------|    
Ab|---8---8-----7---7----5--5----3--3----8-8-8-8-8--8-8-8-8-8------|
Eb|---8---8-----7---7----5--5----3--3----6-6-6-6-6--6-6-6-6-6------|
********************************************************************
eb|--20~~~~---------22\-20--20--18-17---17-15--13-15---------------|
Bb|---x~~~~----------x---x---x---x--x----x--x---x--x---------------|
Gb|--17~~~~---------19\-17--17--15-14---14-12--10-12---------------| 
Db|----------------------------------------------------------------|    
Ab|----------------------------------------------------------------|
Eb|----------------------------------------------------------------|

eb|--------------------|
Bb|--------------------|
Gb|--------------------| 
Db|--8----7----5----7--|    
Ab|--8----7----5----7--|
Eb|--6----5----3----5--|
************************
eb|--17-15--13-15----17--13~~~~------------------------------------|
Bb|---x--x---x--x-----x---x~~~~------------------------------------|
Gb|--14-12--10-12----14--10~~~~-------------------14br-------------| 
Db|----------------------------------------------------------------|    
Ab|----------------------------------------------------------------|
Eb|----------------------------------------------------------------|





Comments


Popular Weezer tabs & chords
Undone The Sweater Song Bass Tabs
Ruling Me 2 Chords
Hash Pipe Drum Tabs
36 Tabs
Everone Tabs
Jamie Tabs
Hit Me Baby One More Time Ukulele
I Dont Want To Let You Go Ukulele
I Just Threw Out The Love Of My Dreams Ukulele
If Your Wondering If I Want You To I Want You To Ukulele


Song lyrics



↑ Back to top | Tablatures and chords are parodies/interpretations of the original songs. You may use it for private study, scholarship, research or language learning purposes only
© 2014 AZChords.com Contact us | Privacy policy | DMCA | Add/correct tabs | Request tabs | Top 50 tabs