>
 >
Space Rock

Space Rock Guitar Tabs

Weezer - Space Rock chords, tabs, tablatures, lyrics

Guitar lessons | Add/correct | Request | Top 50 tabs Artists:  A B C D E F G H I J K L M N O P Q R S T U V W X Y Z 0-9

Space Rock Guitar Tabs – Weezer

CD, Sheet music, Poster

Do you like Space Rock? Share with your friends now
Bass TabsTabs

Eighth track on Maladroit, tuned standard with heavy distortion.

STRUMMING PATTERNS NOT INCLUDED

e--------------------|
B-10-9-10------------|
G--------------------|
D---------777-777-777|
A--------------------|
E--------------------|

Guitar Two: (While Guitar One plays an A power chord)

e--------------------------------------|
B10-9--5-7-9-7-5-----------------------|
G-x-x--x-x-x-x-x--6-7-6-4--6-7-6-4-----|
D-7-6--2-4-6-4-2--x-x-x-x--x-x-x-x-767-|
A-----------------4-5-4-2--4-5-4-2-xxx-|
E----------------------------------545-|

The A power chord continues during the "oo oo oo"'s, every once in a while you
get one of these:

e--------------------|
B-10-9-10------------|
G--------------------|
D---------777-777-777|
A--------------------|
E--------------------|

Followed by:

e--------------------|
B-10-9-7-5-----------|
G--------------------|
D--------------------|
A--------------------|
E--------------------|

Which goes right into the verse:

Verse One:

e--0------------------------------------------------------|
B--5------------------------------------------------------|
G--4-------------------------2----------------------------|
D--2-------------------------2----------------------------|
A--x-------------------------0----------------------------|
E--0------------------------------------------------------|

   You wanna cry when you're dealing with the kids.

(repeat the part played during the "oo oo oo"'s, then)

e--0------------------------------------------------------|
B--5-------------------------------------------3----------|
G--4-------------------------------------1-----2----4-----|
D--2----------------------------4--------2-----0----4-----|
A--x----------------------------4--------2-----0----2-----|
E--0----------------------------2--------0----------------|

   They know it all and they're pinning you to boards.

e---------------------------------------------------------|
B-----------------3---------------------------3-----------|
G-------------1---2---4-------------------1---2---4-------|
D---------4---2---0---4---------------4---2---0---4-------|
A---------4---2---0---2---------------4---2---0---2-------|
E---------2---0-----------------------2---0---------------|

  It's a game.                  And you'll play.                        But

e---------------------------------------------------------|
B-----------------------3-----------------------3---------|
G---------------1-------2--------4----------1---2---4----2|
D---4-----------2-------0--------4------4---2---0---4----2|
A---4-----------2-------0--------2------4---2---0---2----0|
E---2-----------0-----------------------2---0-------------|

you can't have fun when all they do is say             lies

This is played during that last line (but you...)

e---------------------------------------------------------|
B---------7-----5--------5----7---5-----------------------|
G---------x-----x----6---x----x---x----6--4--66-44-7-4--2-|
D---------4-----2----x---2----4---2----x--x--xx-xx-x-x--2-|
A--------------------4-----------------4--2--44-22-5-2--0-|
E---------------------------------------------------------|

  But you can't have fun when all they do is say      lies.


Riff after chorus, before solo.

e---------------|
B10-9--5-7-9-7-5|
G-x-x--x-x-x-x-x|
D-7-6--2-4-6-4-2|
A---------------|
E---------------|


Solo: (While Guitar One plays A power chord)

e---------------------------------------------------------|
B---------------------------------------------------------|
G-12b12b12b12--------------------------------12-12-9-12-9-|
D------------12-11-9-11-12-11-12-11-12-11-11--------------|
A---------------------------------------------------------|
E---------------------------------------------------------|

e---------------------------------------------------------|
B----12--10h12p10-9-10-8h10p8-7-8b8888888-----------------|
G-12------------------------------------------------------|
D---------------------------------------------------------|
A---------------------------------------------------------|
E---------------------------------------------------------|

Then play the chorus again from "They know it all."

FIN.





Comments


Popular Weezer tabs & chords
Buddy Holly Bass Tabs
In The Garage 2 Bass Tabs
Represent Chords
Burndt Jamb 4 Tabs
Island In The Sun 3 Tabs
Keep Fishing 1 Tabs
Oh Lisa Tabs
Photograph 1 Tabs
Polynesia Tabs
Troublemaker 2 Tabs


Song lyrics



↑ Back to top | Tablatures and chords are parodies/interpretations of the original songs. You may use it for private study, scholarship, research or language learning purposes only
© 2014 AZChords.com Contact us | Privacy policy | DMCA | Add/correct tabs | Request tabs | Top 50 tabs