» » »

Weezer, Space Rock Bass tabs (ver.1)

Artists:  A B C D E F G H I J K L M N O P Q R S T U V W X Y Z # 

Space Rock Bass tabs (ver.1)

Weezer Tabs
Rating:
0/5 (0 votes)
Space Rock lessons Tabs too difficult? Try these video lessons and learn fast
                Weezer – Space Rock
Album – Maladroit  



Intro x2
G--------------------------------------------------------------
D--------------------------------------------------------------
A-0-0-0-0-0-0-0-0-0-0-0-0-0-0-0-0-0-0-0-0-0-0-0-0-0-0-0-0-0-0-0
E--------------------------------------------------------------

Riff 1
G--------------------------------------------------------------
D--------------------------------------------------------------
A-------------------------------0-0-0-0-0-0-0-0-0-0-0-0-0-0-0-0
E-0-0-0-0-0-0-0-0-0-0-0-0-0-0-0--------------------------------

G---------------------------------------------------2-------2---
D---------------------------------------------------------2---2-
A-0-0-0-0-0-0-0-0-0-0-0-0-0-0-0-0-0-0-0-0-0-0-0-0-0---0-0-------
E---------------------------------------------------------------

Fill
G-----------------------------
D---------0-2-----------------
A-----------------------------
E-0-0-0-0-----0-0-0-0-0-0-0-0-

Riff 3 x5
G--------------------------------
D---------------0-0-0-0-0--------
A-------------------------2-2-2-2
E-2-2-2-2-0-0-0------------------


Riff 4
G--------------------------------------------------------------
D--------------------------------------------------------------
A-0-0-0-0-0-0-0-0-0-0-0-0-0-0-0-0-0-0-0-0-0-0-0-0-0-0-0-0-0-0-0
E--------------------------------------------------------------

G--------------------------------------------------------------
D--------------------------------------------------------------
A-0-0-0-0-0-0-0-0-0-0-0-0-0-0-0-0------------------------------
E---------------------------------0-0-0-0-0-0-0-0-0-0-0-0-0-0-0

Riff 3 x5

Outro
G-------------------------------------------------------------
D-------------------------------------------------------------
A-0-0-0-0-0-----0---0-0-0-0-0------0---0--0--0--0--0--0--0—-0~-
E-------------------------------------------------------------
            
Submit corrections

comments powered by Disqus
↑ Back to top | Weezer Bass for Space Rock. Lyrics for acoustic guitar and electric guitar. Tablatures and chords are parodies/interpretations of the original songs. You may use it for private study, scholarship, research or language learning purposes only