» » »

Weezer, Smart Girls Tabs (ver.2)

Artists:  A B C D E F G H I J K L M N O P Q R S T U V W X Y Z # 

Smart Girls Tabs (ver.2)

Weezer Tabs
 Rating:
4/5 (4 votes)
Smart Girls lessons Tabs too difficult? Try these video lessons and learn fast
1
                Weezer - Smart Girls
Okay, I'm really out of ideas to write here

Verse:
"Where did all these smart girls come from?..."
e|-----------------------------------------------------------------|
B|-----------------------------------------------------------------|
G|-----------------------------------------------------------------|
D|-----------------------------------------------------------------|2x
A|-5-5-5-5-5-5-5-5-----------------5-5-5-5-5-5-5-5-7-7-7-7-7-7-7-7-|
E|-----------------3-3-3-3-3-3-3-3---------------------------------|
Start playing at "Smart Girls"

Pre-Chorus:
"On the floor, in the car..."
e|---------------------------------------------------------|
B|---------------------------------------------------------|
G|---------------------------------------------------------|
D|---------------------------------------------------------|
A|-2-2-2-2-2-2-2-2-5-5-5-5-5-5-5-5-5-5-5-5-5-5-5-5-5-5-5-5-|
E|---------------------------------------------------------|

Chorus:
"Smart Girls..."
     D       G       D      G        D       G      B
e|-----------------------------------------------------|
B|-----------------------------------------------------|
G|-7-7-7-7---------7-7-7-7---------7-7-7-7---------4-4-|
D|-7-7-7-7-5-5-5-5-7-7-7-7-5-5-5-5-7-7-7-7-5-5-5-5-4-4-|
A|-5-5-5-5-5-5-5-5-5-5-5-5-5-5-5-5-5-5-5-5-5-5-5-5-2-2-|
E|---------3-3-3-3---------3-3-3-3---------3-3-3-3-----|

Verse2:
"I want to be a bad boy right now..."
e|-----------------------------------------------------------------|
B|-----------------------------------------------------------------|
G|-----------------------------------------------------------------|
D|-----------------------------------------------------------------|2x
A|-5-5-5-5-5-5-5-5-----------------5-5-5-5-5-5-5-5-7-7-7-7-7-7-7-7-|
E|-----------------3-3-3-3-3-3-3-3---------------------------------|

Pre-Chorus2:
"On a bus, on a train..."
e|---------------------------------------------------------|
B|---------------------------------------------------------|
G|---------------------------------------------------------|
D|---------------------------------------------------------|
A|-2-2-2-2-2-2-2-2-5-5-5-5-5-5-5-5-5-5-5-5-5-5-5-5-5-5-5-5-|
E|---------------------------------------------------------|

Chorus2:
"Smart Girls..."
     D       G       D       G       D      D 
e|-------------------------------------------------|
B|-------------------------------------------------|
G|-7-7-7-7---------7-7-7-7---------7-7-7-7---------|
D|-7-7-7-7-5-5-5-5-7-7-7-7-5-5-5-5-7-7-7-7-7-7-7-7-|
A|-5-5-5-5-5-5-5-5-5-5-5-5-5-5-5-5-5-5-5-5-7-7-7-7-|
E|---------3-3-3-3---------3-3-3-3---------5-5-5-5-|

Bridge:
"Yumi, Sherie, Alison, Mary
Which one do I want to marry?..."       "They’re all smart girls"
         G                                  D       B
e|-----------------|                   e|-----------------10b-10b-|
B|-----------------|                   B|-------------------------|
G|-----------------|                   G|-7-7-7-7-----------------|
D|-5-5-5-5-5-5-5-5-|                   D|-7-7-7-7-9-9-9-9---------|2x
A|-5-5-5-5-5-5-5-5-|                   A|-5-5-5-5-9-9-9-9---------|
E|-3-3-3-3-3-3-3-3-|                   E|---------7-7-7-7---------|

"Sheena, Lola, Fabiola,
 Don’t you know you make me lose my mind?"
            G                                 A
e|-------------------------------------------------------------|
B|-------------------------------------------------------------|
G|-------------------------------------------------------------|
D|-5-5-5-5-5-5-5-5-5-5-5-5-5-5-5-5-7-7-7-7-7-7-7-7-7-7-7-7-7-7-|
A|-5-5-5-5-5-5-5-5-5-5-5-5-5-5-5-5-7-7-7-7-7-7-7-7-7-7-7-7-7-7-|
E|-3-3-3-3-3-3-3-3-3-3-3-3-3-3-3-3-5-5-5-5-5-5-5-5-5-5-5-5-5-5-|

Solo:
e|--------------------7-7-5-5-3-3-2-2-0h2h3p2-2-0-2-0-2-10-10-9-9-7-5-2-0-...
B|-7-5-------5------------------------------------------------------------...
G|-----7-4-7---7-4--4-----------------------------------------------------...
D|------------------------------------------------------------------------...
A|------------------------------------------------------------------------...
E|------------------------------------------------------------------------...

continued
...-------------------------------|
...-2\8-10------------------------|
...-------------------------------|
...--------11-12-11-12-11-9-7(\4)-|
...-------------------------------|
...-------------------------------|

Verse3:
"Where did all these smart girls come from?"
No guitar.

Bridge:
"Lisa, Brittany, Paula, Whitney
Which one do I want here with me?"      "They’re all smart girls"
        G                                   D       B 
e|-----------------|                   e|-----------------10b-10b-|
B|-----------------|                   B|-------------------------|
G|-----------------|                   G|-7-7-7-7-----------------|
D|-5-5-5-5-5-5-5-5-|                   D|-7-7-7-7-9-9-9-9---------|2x
A|-5-5-5-5-5-5-5-5-|                   A|-5-5-5-5-9-9-9-9---------|
E|-3-3-3-3-3-3-3-3-|                   E|---------7-7-7-7---------|

"Debbie, Donna, Tatiana
Don't you know you make me lose my mind?"
               G                               A
e|-------------------------------------------------------------|
B|-------------------------------------------------------------|
G|-------------------------------------------------------------|
D|-5-5-5-5-5-5-5-5-5-5-5-5-5-5-5-5-7-7-7-7-7-7-7-7-7-7-7-7-7-7-|
A|-5-5-5-5-5-5-5-5-5-5-5-5-5-5-5-5-7-7-7-7-7-7-7-7-7-7-7-7-7-7-|
E|-3-3-3-3-3-3-3-3-3-3-3-3-3-3-3-3-5-5-5-5-5-5-5-5-5-5-5-5-5-5-|

Chorus3:
"Smart Girls..."
     D      G        D       G       D       G
e|-------------------------------------------------|
B|-------------------------------------------------|
G|-7-7-7-7---------7-7-7-7---------7-7-7-7---------|
D|-7-7-7-7-5-5-5-5-7-7-7-7-5-5-5-5-7-7-7-7-5-5-5-5-|
A|-5-5-5-5-5-5-5-5-5-5-5-5-5-5-5-5-5-5-5-5-5-5-5-5-|
E|---------3-3-3-3---------3-3-3-3---------3-3-3-3-|

Outro:
"Smart Girls..."                                   "...smart giiiiirls"
     D       G       D       G       D       G      D       G       B 
e|---------------------------------------------------------------------|
B|---------------------------------------------------------------------|
G|-7-7-7-7---------7-7-7-7---------7-7-7-7---------7-7-7-7---------4-4-|
D|-7-7-7-7-5-5-5-5-7-7-7-7-5-5-5-5-7-7-7-7-5-5-5-5-7-7-7-7-5-5-5-5-4-4-|
A|-5-5-5-5-5-5-5-5-5-5-5-5-5-5-5-5-5-5-5-5-5-5-5-5-5-5-5-5-5-5-5-5-2-2-|
E|---------3-3-3-3---------3-3-3-3---------3-3-3-3---------3-3-3-3-----|

Easy music, I made the tab carefully hope there are no errors, but if you send to 
            
Submit corrections

comments powered by Disqus
↑ Back to top | Weezer Tabs for Smart Girls. Lyrics for acoustic guitar and electric guitar. 1 Tablatures and chords are parodies/interpretations of the original songs. You may use it for private study, scholarship, research or language learning purposes only